Cross Canadian Ragweed - Bang My Head Chords

 
No chord
Standard guitar tuning:
E
A
D
G
B
E
No capo
Intro/verse
e|---4-4-x---2-2-x--0-0-x-0-0-x------4-x-4-4-x--2-2-x-2------------------------|
B|---5-5-x---4-4-x--2-2-x-2-2-x------5-x-5-5-x--4-4-x-4------------------------|
G|---6-6-x---4-4-x--2-2-x-2-2-x—x3---6-x-6-6-x--4-4-x-4------------------------|
D|---6-6-x---4-4-x--2-2-x-2-2-x------6-x-6-6-x--4-4-x-4------------------------|
A|---4-4-x---2-2-x--0-0-x-0-0-x------4-x-4-4-x--2-2-x-2------------------------|
E|-----------------------------------------------------------------------------|

Chorus

e|---0-0-0-x--2-2-x-0-0-x-0-0-x-------4-x-4--2-2-x--0-0-x-0-0-x---------------|
B|---0-0-0-x--4-4-x-2-2-x-2-2-x-------5-x-5--4-4-x--2-2-x-2-2-x---------------|
G|---1-1-1-x--4-4-x-2-2-x-2-2-x---x4--6-x-6--4-4-x--2-2-x-2-2-x-x3------------|
D|---2-2-2-x--4-4-x-2-2-x-2-2-x-------6-x-6--4-4-x--2-2-x-2-2-x---------------|
A|---2-2-2-x--2-2-x-0-0-x-0-0-x-------4-x-4--2-2-x--0-0-x-0-0-x---------------|
E|---0-0-0-x------------------------------------------------------------------|
e|---4-x-4-4-x--2-2-x-2-------------------------------------------------------|
B|---5-x-5-5-x--4-4-x-4-------------------------------------------------------|
G|---6-x-6-6-x--4-4-x-4-------------------------------------------------------|
D|---6-x-6-6-x--4-4-x-4-------------------------------------------------------|
A|---4-x-4-4-x--2-2-x-2-------------------------------------------------------|
E|----------------------------------------------------------------------------|