Cymande - Dove Chords

 
7 fr
         
         
         
         
         
1
3
4
2
1
1
         
         
         
         
         
X
2
1
X
3
         
         
         
         
         
X
1
4
4
4
X
         
         
         
         
         
X
1
3
3
3
1
4 fr
         
         
         
         
         
4
3
1
1
1
X
4 fr
         
         
         
         
         
3
2
1
1
1
4

9 fr
         
         
         
         
         
X
X
1
3
4
3
11 fr
         
         
         
         
         
X
4
3
1
2
1
No chord
Standard guitar tuning:
E
A
D
G
B
E
No capo
G-----4---4---6------|
D--6----6---6---6----|  x31
A-----------------4--|
E--------------------|
) I wrote out the entire lick progressions so that those of you that want to follow the song note by note -can-, AND made a notation in the song at each bass change with a listed multiplier for the number of times for you play a part for those of you that don't want to read through all of it. Time stamps are included for reference in case you get lost. Good luck! | / slide | B hammer-on | p pull-off

Intro

11 pairs
G-------------------------------------------------------------|
D-------------------------------------------------------------|
A----4----4----4----4----4----4----4----4----4----4----4------|
E--4----4----4----4----4----4----4----4----4----4----4--------|
Bass Change: (0:30) Varied = 16 times total _1 time_ _ 1 time _ __ 1 time _
G--------6---------6p4h6---------6p4h6--------6p4h6-----------|
D-------------------------------------------------------------|
A----4---------4------------4-4-----------4-------------------|
E--4---------4------------4-------------4---------------------|
G--------6---------6p4h6---------6p4h6--------6p4h6-----------|
D-------------------------------------------------------------|
A----4---------4------------4-4-----------4-------------------|
E--4---------4------------4-------------4---------------------|
G--------6p4h6-----6p4h6--------6h4p6-----6p4h6---------------|
D-------------------------------------------------------------|
A----4-----------4----------4-----------4---------------------|
E--4-----------4----------4-----------4-----------------------|
G--------6p4h6-----6p4h6--------6p4h6-----6p4h6---------------|
D-------------------------------------------------------------|
A----4-----------4----------4-----------4---------------------|
E--4-----------4----------4-----------4-----------------------|
Bass Change: (1:10) 7 times + 1 misc __ 1 time __
G-------6-----------6----------6-----------6------------------|
D---------6-4---------6-4--------6-4---------6-4--------------|
A----4-----------4----------4-----------4---------------------|
E--4-----------4----------4-----------4-----------------------|
G-------6-----------6----------6------------------------------|
D---------6-4---------6-4--------6-4-------3-4-5-6------------|
A----4-----------4----------4-----------4-------------4-------|
E--4-----------4----------4-----------4-------------4---------|
Bass Change: (1:30) 17 pairs *Slow Basic Lick* *Tamborine starts here* __________ 1 pair __________
G----4---4---6-------------------4---4---6--------------------|
D--6---6---6------3-4-5-6------6---6---6------3-4-5-6---------|
A--------------4------------4--------------4------------4-----|
E-------------------------4---------------------------4-------|
G----4---4---6-------------------4---4---6--------------------|
D--6---6---6------3-4-5-6------6---6---6------3-4-5-6---------|
A--------------4------------4--------------4------------4-----|
E-------------------------4---------------------------4-------|
G----4---4---6-------------------4---4---6--------------------|
D--6---6---6------3-4-5-6------6---6---6------3-4-5-6---------|
A--------------4------------4--------------4------------4-----|
E-------------------------4---------------------------4-------|
G----4---4---6-------------------4---4---6--------------------|
D--6---6---6------3-4-5-6------6---6---6------3-4-5-6---------|
A--------------4------------4--------------4------------4-----|
E-------------------------4---------------------------4-------|
G----4---4---6-------------------4---4---6--------------------|
D--6---6---6------3-4-5-6------6---6---6------3-4-5-6---------|
A--------------4------------4--------------4------------4-----|
E-------------------------4---------------------------4-------|
G----4---4---6-------------------4---4---6--------------------|
D--6---6---6------3-4-5-6------6---6---6------3-4-5-6---------|
A--------------4------------4--------------4------------4-----|
E-------------------------4---------------------------4-------|
G----4---4---6-------------------4---4---6--------------------|
D--6---6---6------3-4-5-6------6---6---6------3-4-5-6---------|
A--------------4------------4--------------4------------4-----|
E-------------------------4---------------------------4-------|
G----4---4---6-------------------4---4---6--------------------|
D--6---6---6------3-4-5-6------6---6---6------3-4-5-6---------|
A--------------4------------4--------------4------------4-----|
E-------------------------4---------------------------4-------|
G----4---4---6-------------------|
D--6---6---6------3-4-5-6--------|
A--------------4------------4----|
E-------------------------4------|
Bass Change: (2:45) 4 pairs *note: You may want to try 6p4 on the G string. In the song they are being strummed seperately but also muted to avoid making the song muddy. 6p4 is much easier and solves that problem for you.* _________ 1 pair __________
G--6-4---4-6/8-----------------6-4---4-6/8--------------------|
D------4---------3-4-5-6-----------6-----------3-4-5-6--------|
A--------------4------------4--------------4-------------4----|
E-------------------------4----------------------------4------|
G--6-4---4-6/8-----------------6-4---4-6/8--------------------|
D------4---------3-4-5-6-----------6-----------3-4-5-6--------|
A--------------4------------4--------------4-------------4----|
E-------------------------4----------------------------4------|
Bass Change: (3:03) 31 times + 1 misc. *Fast Basic Lick* _____ 1 time ____
G-----4---4---6---------4---4---6---------4---4---6-----------|
D--6----6---6---6----6----6---6---6----6----6---6---6---------|
A-----------------4-----------------4-----------------4-------|
E-------------------------------------------------------------|
G-----4---4---6---------4---4---6---------4---4---6-----------|
D--6----6---6---6----6----6---6---6----6----6---6---6---------|
A-----------------4-----------------4-----------------4-------|
E-------------------------------------------------------------|
G-----4---4---6---------4---4---6---------4---4---6-----------|
D--6----6---6---6----6----6---6---6----6----6---6---6---------|
A-----------------4-----------------4-----------------4-------|
E-------------------------------------------------------------|
G-----4---4---6---------4---4---6---------4---4---6-----------|
D--6----6---6---6----6----6---6---6----6----6---6---6---------|
A-----------------4-----------------4-----------------4-------|
E-------------------------------------------------------------|
G-----4---4---6---------4---4---6---------4---4---6-----------|
D--6----6---6---6----6----6---6---6----6----6---6---6---------|
A-----------------4-----------------4-----------------4-------|
E-------------------------------------------------------------|
G-----4---4---6---------4---4---6---------4---4---6-----------|
D--6----6---6---6----6----6---6---6----6----6---6---6---------|
A-----------------4-----------------4-----------------4-------|
E-------------------------------------------------------------|
G-----4---4---6---------4---4---6---------4---4---6-----------|
D--6----6---6---6----6----6---6---6----6----6---6---6---------|
A-----------------4-----------------4-----------------4-------|
E-------------------------------------------------------------|
G-----4---4---6---------4---4---6---------4---4---6-----------|
D--6----6---6---6----6----6---6---6----6----6---6---6---------|
A-----------------4-----------------4-----------------4-------|
E-------------------------------------------------------------|
G-----4---4---6---------4---4---6---------4---4---6-----------|
D--6----6---6---6----6----6---6---6----6----6---6---6---------|
A-----------------4-----------------4-----------------4-------|
E-------------------------------------------------------------|
G-----4---4---6---------4---4---6---------4---4---6-----------|
D--6----6---6---6----6----6---6---6----6----6---6---6---------|
A-----------------4-----------------4-----------------4-------|
E-------------------------------------------------------------|
G-----4---4---6------------------|
D--6----6---6---4---3-4-5-6------|
A-----------------4-----------4--|
E---------------------------4----|
^ |___ Note change from 6 to 4 Bass Change: (4:12) Varied = 4 pairs total *Fast Basic Lick* _________ 1 pair ____________
G-----4---4---6---------------------4---4---6-----------------|
D--6----6---6---6---3-4-5-6------6----6---6---6---3-4-5-6-----|
A-----------------4-----------4-----------------4-----------4-|
E---------------------------4-----------------------------4---|
G--6-4---4-6/8-----------------6-4---4-6/8--------------------|
D------4---------3-4-5-6-----------6----------3-4-5-6---------|
A--------------4------------4--------------4------------4-----|
E-------------------------4---------------------------4-------|
Bass Change: (4:29) 11 times + 1 misc *Fast Basic Lick* _____ 1 time _____
G-----4---4---6---------4---4---6---------4---4---6-----------|
D--6----6---6---6----6----6---6---6----6----6---6---6---------|
A-----------------4-----------------4-----------------4-------|
E-------------------------------------------------------------|
G-----4---4---6---------4---4---6---------4---4---6-----------|
D--6----6---6---6----6----6---6---6----6----6---6---6---------|
A-----------------4-----------------4-----------------4-------|
E-------------------------------------------------------------|
G-----4---4---6---------4---4---6---------4---4---6-----------|
D--6----6---6---6----6----6---6---6----6----6---6---6---------|
A-----------------4-----------------4-----------------4-------|
E-------------------------------------------------------------|
G-----4---4---6---------4---4---6-----------------------------|
D--6----6---6---6----6----6---6---6----3-4-5-6----------------|
A-----------------4-----------------4------------4------------|
E----------------------------------------------4--------------|
Bass Change: (4:55) 11 pairs *Slow Basic Lick* ___________ 1 pair _________
G----4---4---6-------------------4---4---6--------------------|
D--6---6---6------3-4-5-6------6---6---6------3-4-5-6---------|
A--------------4------------4--------------4------------4-----|
E-------------------------4---------------------------4-------|
G----4---4---6-------------------4---4---6--------------------|
D--6---6---6------3-4-5-6------6---6---6------3-4-5-6---------|
A--------------4------------4--------------4------------4-----|
E-------------------------4---------------------------4-------|
G----4---4---6-------------------4---4---6--------------------|
D--6---6---6------3-4-5-6------6---6---6------3-4-5-6---------|
A--------------4------------4--------------4------------4-----|
E-------------------------4---------------------------4-------|
G----4---4---6-------------------4---4---6--------------------|
D--6---6---6------3-4-5-6------6---6---6------3-4-5-6---------|
A--------------4------------4--------------4------------4-----|
E-------------------------4---------------------------4-------|
G----4---4---6-------------------4---4---6--------------------|
D--6---6---6------3-4-5-6------6---6---6------3-4-5-6---------|
A--------------4------------4--------------4------------4-----|
E-------------------------4---------------------------4-------|
G----4---4---6------------------|
D--6---6---6------3-4-5-6-------|
A--------------4------------4---|
E-------------------------4-----|
Bass Change: (5:41) 4 pairs _________ 1 pair ___________
G--6-4---4-6/8-----------------6-4---4-6/8--------------------|
D------4---------3-4-5-6-----------6-----------3-4-5-6--------|
A--------------4------------4--------------4-------------4----|
E-------------------------4----------------------------4------|
G--6-4---4-6/8-----------------6-4---4-6/8--------------------|
D------4---------3-4-5-6-----------6-----------3-4-5-6--------|
A--------------4------------4--------------4-------------4----|
E-------------------------4----------------------------4------|
Bass Change: (5:58) 4 times + 1 misc *Slow Basic Lick* ___ 1 time ___
G----4---4---6-------4---4---6-------4---4---6----------------|
D--6---6---6-------6---6---6-------6---6---6------------------|
A--------------4---------------4------------------------------|
E-------------------------------------------------------------|
G----4---4---6---------------------|
D--6---6---6-------3-4-5-6---------|
A--------------4-------------4-----|
E--------------------------4-------|
Bass Change: (6:09) 20 times *Fast Basic Lick* + 1 misc Slow Basic Lick Fast Basic Lick ___ 1 time ___ ___ 1 time ___
G----4----4----6--------4---4---6---------4---4---6-----------|
D--6----6----6-------6----6---6---6----6----6---6---6---------|
A-----------------4-----------------4-----------------4-------|
E-------------------------------------------------------------|
G-----4---4---6---------4---4---6---------4---4---6-----------|
D--6----6---6---6----6----6---6---6----6----6---6---6---------|
A-----------------4-----------------4-----------------4-------|
E-------------------------------------------------------------|
G-----4---4---6---------4---4---6---------4---4---6-----------|
D--6----6---6---6----6----6---6---6----6----6---6---6---------|
A-----------------4-----------------4-----------------4-------|
E-------------------------------------------------------------|
G-----4---4---6---------4---4---6---------4---4---6-----------|
D--6----6---6---6----6----6---6---6----6----6---6---6---------|
A-----------------4-----------------4-----------------4-------|
E-------------------------------------------------------------|
G-----4---4---6---------4---4---6---------4---4---6-----------|
D--6----6---6---6----6----6---6---6----6----6---6---6---------|
A-----------------4-----------------4-----------------4-------|
E-------------------------------------------------------------|
G-----4---4---6---------4---4---6---------4---4---6-----------|
D--6----6---6---6----6----6---6---6----6----6---6---6---------|
A-----------------4-----------------4-----------------4-------|
E-------------------------------------------------------------|
G-----4---4---6---------4---4---6-----------------------------|
D--6----6---6---6----6----6---6---6----3-4-5-6----------------|
A-----------------4-----------------4------------4------------|
E----------------------------------------------4--------------|
Bass Change: (6:53) 23 times. The next couple of minutes are *Slow Basic Lick* paired with no variations. _________ 1 pair ________
G----4---4---6-------------------4---4---6--------------------|
D--6---6---6------3-4-5-6------6---6---6------3-4-5-6---------|
A--------------4------------4--------------4------------4-----|
E-------------------------4---------------------------4-------|
G----4---4---6-------------------4---4---6--------------------|
D--6---6---6------3-4-5-6------6---6---6------3-4-5-6---------|
A--------------4------------4--------------4------------4-----|
E-------------------------4---------------------------4-------|
G----4---4---6-------------------4---4---6--------------------|
D--6---6---6------3-4-5-6------6---6---6------3-4-5-6---------|
A--------------4------------4--------------4------------4-----|
E-------------------------4---------------------------4-------|
G----4---4---6-------------------4---4---6--------------------|
D--6---6---6------3-4-5-6------6---6---6------3-4-5-6---------|
A--------------4------------4--------------4------------4-----|
E-------------------------4---------------------------4-------|
G----4---4---6-------------------4---4---6--------------------|
D--6---6---6------3-4-5-6------6---6---6------3-4-5-6---------|
A--------------4------------4--------------4------------4-----|
E-------------------------4---------------------------4-------|
G----4---4---6-------------------4---4---6--------------------|
D--6---6---6------3-4-5-6------6---6---6------3-4-5-6---------|
A--------------4------------4--------------4------------4-----|
E-------------------------4---------------------------4-------|
G----4---4---6-------------------4---4---6--------------------|
D--6---6---6------3-4-5-6------6---6---6------3-4-5-6---------|
A--------------4------------4--------------4------------4-----|
E-------------------------4---------------------------4-------|
G----4---4---6-------------------4---4---6--------------------|
D--6---6---6------3-4-5-6------6---6---6------3-4-5-6---------|
A--------------4------------4--------------4------------4-----|
E-------------------------4---------------------------4-------|
G----4---4---6-------------------4---4---6--------------------|
D--6---6---6------3-4-5-6------6---6---6------3-4-5-6---------|
A--------------4------------4--------------4------------4-----|
E-------------------------4---------------------------4-------|
G----4---4---6-------------------4---4---6--------------------|
D--6---6---6------3-4-5-6------6---6---6------3-4-5-6---------|
A--------------4------------4--------------4------------4-----|
E-------------------------4---------------------------4-------|
G----4---4---6-------------------4---4---6--------------------|
D--6---6---6------3-4-5-6------6---6---6------3-4-5-6---------|
A--------------4------------4--------------4------------4-----|
E-------------------------4---------------------------4-------|
G----4---4---6-------------------|
D--6---6---6------3-4-5-6--------|
A--------------4------------4----|
E-------------------------4------|
Bass Change: (8:31) 11 pairs
G-------------------------------------------------------------|
D-------------------------------------------------------------|
A----4----4----4----4----4----4----4----4----4----4----4------|
E--4----4----4----4----4----4----4----4----4----4----4--------|
Bass Change: (8:56) 16 times __ 1 time__
G--------6p4h6-----6p4h6--------6p4h6-----6p4h6---------------|
D-------------------------------------------------------------|
A----4-----------4----------4-----------4---------------------|
E--4-----------4----------4-----------4-----------------------|
G--------6p4h6-----6p4h6--------6p4h6-----6p4h6---------------|
D-------------------------------------------------------------|
A----4-----------4----------4-----------4---------------------|
E--4-----------4----------4-----------4-----------------------|
G--------6p4h6-----6p4h6--------6h4p6-----6p4h6---------------|
D-------------------------------------------------------------|
A----4-----------4----------4-----------4---------------------|
E--4-----------4----------4-----------4-----------------------|
G--------6p4h6-----6p4h6--------6p4h6-----6p4h6---------------|
D-------------------------------------------------------------|
A----4-----------4----------4-----------4---------------------|
E--4-----------4----------4-----------4-----------------------|
Bass Change: (9:33) 7 times + 1 misc __ 1 time__
G-------6-----------6----------6-----------6------------------|
D---------6-4---------6-4--------6-4---------6-4--------------|
A----4-----------4----------4-----------4---------------------|
E--4-----------4----------4-----------4-----------------------|
G-------6-----------6----------6------------------------------|
D---------6-4---------6-4--------6-4-------3-4-5-6------------|
A----4-----------4----------4-----------4-------------4-------|
E--4-----------4----------4-----------4-------------4---------|
Bass Change: (9:52) 9 pairs *Slow Basic Lick* *Tamborine starts here* __________ 1 pair __________
G----4---4---6-------------------4---4---6--------------------|
D--6---6---6------3-4-5-6------6---6---6------3-4-5-6---------|
A--------------4------------4--------------4------------4-----|
E-------------------------4---------------------------4-------|
G----4---4---6-------------------4---4---6--------------------|
D--6---6---6------3-4-5-6------6---6---6------3-4-5-6---------|
A--------------4------------4--------------4------------4-----|
E-------------------------4---------------------------4-------|
G----4---4---6-------------------4---4---6--------------------|
D--6---6---6------3-4-5-6------6---6---6------3-4-5-6---------|
A--------------4------------4--------------4------------4-----|
E-------------------------4---------------------------4-------|
G----4---4---6-------------------4---4---6--------------------|
D--6---6---6------3-4-5-6------6---6---6------3-4-5-6---------|
A--------------4------------4--------------4------------4-----|
E-------------------------4---------------------------4-------|
G----4---4---6-----------------|
D--6---6---6------3-4-5-6------|
A--------------4------------4--|
E-------------------------4----|
Yer done.