Daft Punk - Digital Love Chords

 
No chord
Standard guitar tuning:
E
A
D
G
B
E
No capo
|e----x--x----x--x----x--x----x--x--x---x--x|
|B----x--x----x--x----2--2----x--x--x---x--x|
|G----7--7----6--6----2--2----6--6--6---6--6|
|D----7--7----6--6----4--4----6--6--6---6--6|
|A----5--5----4--4----x--x----4--4--4---4--4|
|E----x--x----x--x----x--x----x--x--x---x--x|
Strum-D--D----D--D----D--D----D--U--D---D--U|
* Hint for the x466xx bit [at the end], u might want to try palm muting instead of
it all through e.g:
  PM
x--x--x---x--x|
x--x--x---x--x|
6--x--6---6--6|
6--x--6---6--6|
4--x--4---4--4|
x--x--x---x--x|
or
  PM
x--x--x---x--x|
x--x--x---x--x|
6--x--6---x--6|
6--x--6---x--6|
4--x--4---x--4|
x--x--x---x--x|
Anyway just be creative :) The tab is for you to interpret, the music is up to you!