Dead Kennedys - Chicken Farm Chords

 
No chord
Standard guitar tuning:
E
A
D
G
B
E
No capo
e-|-12--12----12--12-|-12-12-12-12-12-12-12-12-16-16-16-------------------
B-|-12-----12-----12-|----------------------------------14-14-14-14-14-14-
G-|-13---------------|----------------------------------------------------
D-|-14---------------|----------------------------------------------------
A-|------------------|----------------------------------------------------
E-|------------------|----------------------------------------------------
e-------------|-12-12-12-12-12-12-12-12-12-12-16-16-------------------|---
B-14-14-14-14-|-------------------------------------13-13-13-12-12-12-|---
G-------------|-------------------------------------------------------|---
D-------------|-------------------------------------------------------|---
A-------------|-------------------------------------------------------|---
E-------------|-------------------------------------------------------|---
e-|-19-19-16-17p16----16-19-16-17p16-----|--------------------------------
B-|----------------17--------------------|--------------------------------
G-|----------------------------------19--|-9-9-----9-------9--9--9--------
D-|--------------------------------------|-9-9---9---9---9----------------
A-|--------------------------------------|-7-7-7-------7------------------
E-|--------------------------------------|--------------------------------
   harmonic..this is apparently the verse
e-|---------------------------------------|
B-|---------------------------------------|
G-|-----------------------9---------9-----|
D-|--------------------9-----9------9-----|
A-|-7--7--7--etc----7-----------7---7-----|
E-|---------------------------------------|
e-|------------------------------------------------------------------------
B-|------------------------------------------------------------------------
G-|-9-9-9-9-9-8-7-7-7-7-7-8-8-9-9-9-9-9-8-7-7-7-7-7-8-12-12-12-12-12-11----
D-|-9-9-9-9-9-8-7-7-7-7-7-8-8-9-9-9-9-9-8-7-7-7-7-7-8-12-12-12-12-12-11----
A-|-7-7-7-7-7-6-5-5-5-5-5-6-6-7-7-7-7-7-6-5-5-5-5-5-6-10-10-10-10-10--9----
E-|------------------------------------------------------------------------
e-----------------------------------------------------------------------------
B-----------------------------------------------------------------------------
G--10-10-10-10-10-11-12-12-12-12-12-11-10-10-10-10-10-9-9-9-9-9-8-7-7-7-7-7-6-
D--10-10-10-10-10-11-12-12-12-12-12-11-10-10-10-10-10-9-9-9-9-9-8-7-7-7-7-7-6-
A---8--8--8--8--8--9-10-10-10-10-10--9--8--8--8--8--8-7-7-7-7-7-6-5-5-5-5-5-4-
E-----------------------------------------------------------------------------
transcribe by a friend of rambozos.... now someone out there has to know how to play religious vomit...