Dead Kennedys - Straight As Chords

 
No chord
    
Standard guitar tuning:
E
A
D
G
B
E
No capo
intro x4               verse             fill x2
e-|--------------|----------------------|------------------------------------|
B-|--------------|----------------------|------------------------------------|
G-|----------6---|--7-------7-------9---|--6---8-------6---8-------6---9-----|
D-|--5---7---6---|--7---7---7---7---9---|--6---8---7---6---8---7---6---9---8-|
A-|--5---7---4---|--5---7---5---7---7---|--4---6---7---4---6---7---4---7---8-|
E-|--3---5-------|------5-------5-------|----------5-----------5-----------6-|
2nd Verse (high part) x2       chorus x4
e-|--------------------------|----------------------|
B-|--------------------------|----------------------|
G-|--10-------10--------12---|------------6---------|
D-|--10---10--10---10---12---|---5---7----6---------|
A-|---8---10---8---10---10---|---5---7----4---------|
E-|--------8--------8--------|---3---5--------------|