Dead Kennedys - Too Drunk To F..k Chords

Verse 1 Riff
 
         
         
         
         
         
X
1
2
3
5 fr
         
         
         
         
         
1
3
4
2
1
1
2 fr
         
         
         
         
         
X
1
1
1
4
         
         
         
         
         
X
X
1
2
2 fr
         
         
         
         
         
3
2
1
1
1
4
7 fr
         
         
         
         
         
X
X
1
3
4
3

9 fr
         
         
         
         
         
X
4
3
1
2
1
12 fr
         
         
         
         
         
X
1
3
3
3
1
7 fr
         
         
         
         
         
1
3
4
2
1
1
         
         
         
         
         
X
2
1
X
3
         
         
         
         
         
X
1
4
4
4
X
         
         
         
         
         
X
1
3
3
3
1
4 fr
         
         
         
         
         
4
3
1
1
1
X
4 fr
         
         
         
         
         
3
2
1
1
1
4

9 fr
         
         
         
         
         
X
X
1
3
4
3
11 fr
         
         
         
         
         
X
4
3
1
2
1

Aadd9

variations
         
         
         
         
         
X
1
4
2
5 fr
         
         
         
         
         
X
X
3
2
1
4
9 fr
         
         
         
         
         
X
3
2
1
4
1
9 fr
         
         
         
         
         
X
4
1
1
2
1
9 fr
         
         
         
         
         
X
3
1
1
4
1
6 fr
         
         
         
         
         
X
         
         
         
         
         
X
3
2
1
3 fr
         
         
         
         
         
X
1
2
3
4
1
8 fr
         
         
         
         
         
1
3
4
2
1
1
3 fr
         
         
         
         
         
X
1
X
3
4
1
5 fr
         
         
         
         
         
3
2
1
1
1
4
10 fr
         
         
         
         
         
X
X
1
3
4
3

12 fr
         
         
         
         
         
X
4
3
1
2
1
3 fr
         
         
         
         
         
X
         
         
         
         
         
X
X
1
3
2
2 fr
         
         
         
         
         
X
4
3
1
2
1
5 fr
         
         
         
         
         
X
1
2
3
4
1
5 fr
         
         
         
         
         
X
1
4
4
4
X
7 fr
         
         
         
         
         
4
3
1
1
1
X
7 fr
         
         
         
         
         
3
2
1
1
1
4

10 fr
         
         
         
         
         
1
3
4
2
1
1
12 fr
         
         
         
         
         
X
X
1
3
4
3
5 fr
         
         
         
         
         
X
X
         
         
         
         
         
2
3
1
4 fr
         
         
         
         
         
X
4
3
1
2
1
7 fr
         
         
         
         
         
X
1
4
4
4
X
2 fr
         
         
         
         
         
X
X
1
2
4
3
4 fr
         
         
         
         
         
4
3
1
2
1
7 fr
         
         
         
         
         
X
1
3
3
3
1

9 fr
         
         
         
         
         
4
3
1
1
1
X
9 fr
         
         
         
         
         
3
2
1
1
1
4
12 fr
         
         
         
         
         
1
3
4
2
1
1
4 fr
         
         
         
         
         
X

Dadd9

variations
2 fr
         
         
         
         
         
X
4
3
1
2
2 fr
         
         
         
         
         
X
4
1
1
2
1
2 fr
         
         
         
         
         
X
3
2
1
4
1
2 fr
         
         
         
         
         
X
3
1
1
4
1
10 fr
         
         
         
         
         
X
X
3
2
1
4
No chord
Standard guitar tuning:
E
A
D
G
B
E
No capo
            e| --------------------------------
            B| --------------------------------
            G| --------------------------------
     A
D| --------0-1-0---------0-----0---
            A| 0---3-0-------3-0-0-3-----3---3-
            E| --------------------------------
            e| --------------------------------
            B| --------------------------------
            G| --------------------------------
     B
D| ----------------0---0---1---0---
            A| 3---3---3---3-------------------
            E| --------------------------------
            e| ------------------------
            B| ------------------------
            G| ------------------------
     Aadd9
D| --------0-1-0---------0-
            A| 0---3-0-------3-0-0-3---
            E| ------------------------
            e| ----------------
            B| ----------------
            G| ----------------
     C
D| ----------------
            A| ----------------
            E| 5---5---3-5---3-
            e| --------------------------------
            B| --------------------------------
            G| --------------------------------
     D
D| --------2-3-2---------2-----2---
            A| 2---5-2-------5-2-2-5-----5---5-
            E| --------------------------------
            e| --------------------------------
            B| --------------------------------
            G| --------------------------------
     E
D| ----------------2---2---3---2---
            A| 5---5---5---5-------------------
            E| --------------------------------
            e| ------------------------
            B| ------------------------
            G| ------------------------
     Dadd9
D| --------2-3-2---------2-
            A| 2---5-2-------5-2-2-5---
            E| ------------------------

A

A

B

A

A

B

Aadd9 Went to a party I danced all night I drank sixteen beers and I started up a fight But now I'm jaded You're out of luck I'm rolling down the stairs too drunk to fuck
               (chords:)               --G-G-G-
               E-------------------------G-G-G-
Too drunk to fuck
               E-------------------------G-G-G-
Too drunk to fuck
               E---------G-G-G-E---------G-G-G-
Too drunk, to fuck
               E---E---F---F---F#--F#--C---C---
I'm too drunk, too drunk, too drunk to fuck I like your stories I like your gun Shooting out cop tires sounds like loads and loads of fun But in my room Wish you were dead You ball like the baby in Eraserhead Too drunk to fuck It's all I need right now Too drunk to fuck
(break:)       C---------------C---------------
               C---------------C---------------
               C-------D-------D#------D--D#-D-
               D#--C---------------------------
               C-------D-------D#------D--D#-D-
               C-------------------------------

C

               D-----D#----C---

C

               D-----C-----a-g-c-a-------G-G-G-    (a-g-c-a- with a
single string)
               E-------------------------G-G-G-
Too drunk....
               E-------------------------G-G-G-
               E---------G-G-G-E---------G-G-G-
               E---E---F---F---F#--F#--C---C---
I'm sick soft gooey and cold, too drunk to fuck

A

D

E

D

D

E

Dadd9 I'm about to drop My head's a mess The only salvation is I'll never see you again You give me head It makes it worse Take out your fucking retainer put it in your purse
                                       --A-A-A-
               F#------------------------A-A-A-
Too drunk...
               F#------------------------A-A-A-
               F#--------A-A-A-F#--------A-A-A-
F#--F#--G---G---G#--G#--D---D--- (x3) It's all I need right now, oh baby I'm melting like an ice cream bar, oh baby And now I got diarrhea, too drunk to fuck
               D-------C-------D-------F--D-F--   (x3)
Yeah, yeah
               D-------