Depeche Mode - Breathe Chords

 
         
         
         
         
X
2
3
1
5 fr
         
         
         
         
1
3
4
1
1
1
5 fr
         
         
         
         
X
X
1
1
1
8 fr
         
         
         
         
X
3
2
4
1
2 fr
         
         
         
         
X
1
4
4
4
7 fr
         
         
         
         
X
1
3
4
2

9 fr
         
         
         
         
X
4
3
1
2
X
12 fr
         
         
         
         
X
1
3
4
2
1
5 fr
         
         
         
         
X
3 fr
         
         
         
         
1
3
4
1
1
1
5 fr
         
         
         
         
X
X
1
3
4
2
3 fr
         
         
         
         
X
X
3
1
1
1
         
         
         
         
1
X
2
3
4
         
         
         
         
3
1
X
X
X
         
         
         
         
2
1
3
4

7 fr
         
         
         
         
X
4
3
1
2
X
10 fr
         
         
         
         
X
1
3
4
2
1
         
         
         
         
1
3
4
1
1
1
         
         
         
         
X
X
3
1
1
1
3 fr
         
         
         
         
X
X
1
3
4
2
8 fr
         
         
         
         
X
1
3
4
2
1
5 fr
         
         
         
         
X
4
3
1
2
X
         
         
         
         
X
3
2
1
3 fr
         
         
         
         
X
1
2
3
4
1
8 fr
         
         
         
         
1
3
4
2
1
1
3 fr
         
         
         
         
X
1
X
3
4
1
5 fr
         
         
         
         
3
2
1
1
1
4
10 fr
         
         
         
         
X
X
1
3
4
3

12 fr
         
         
         
         
X
4
3
1
2
1
3 fr
         
         
         
         
X
         
         
         
         
X
X
1
3
2
2 fr
         
         
         
         
X
4
3
1
2
1
5 fr
         
         
         
         
X
1
2
3
4
1
5 fr
         
         
         
         
X
1
4
4
4
X
7 fr
         
         
         
         
4
3
1
1
1
X
7 fr
         
         
         
         
3
2
1
1
1
4

10 fr
         
         
         
         
1
3
4
2
1
1
12 fr
         
         
         
         
X
X
1
3
4
3
5 fr
         
         
         
         
X
X
7 fr
         
         
         
         
1
3
4
2
1
1
         
         
         
         
X
2
1
X
3
         
         
         
         
X
1
4
4
4
X
         
         
         
         
X
1
3
3
3
1
4 fr
         
         
         
         
4
3
1
1
1
X
4 fr
         
         
         
         
3
2
1
1
1
4

9 fr
         
         
         
         
X
X
1
3
4
3
11 fr
         
         
         
         
X
4
3
1
2
1
No chord
Standard guitar tuning:
E
A
D
G
B
E
No capo
  Am           Gm
e|-------5--------------3---------------------------------------------------
B|-----5---8-7b-------3---6-5b----------------------------------------------
G|---5--------------3-------------------------------------------------------
D|-7--------------5---------------------------------------------------------
A|--------------------------------------------------------------------------
E|--------------------------------------------------------------------------
The second part of the verse uses a Fm riff and a different Am riff:

Am Fm

e|-------0-----------1------------------------------------------------------ B|-----1-----------1-------------------------------------------------------- G|---2-----------1---------------------------------------------------------- D|-2-----------3----------------------------------------------------------- A|-------------------------------------------------------------------------- E|--------------------------------------------------------------------------
Strum Am and Fm chords on the bridge:

Am Fm

e|---0-----1---------------------------------------------------------------- B|---1-----1---------------------------------------------------------------- G|---2-----1---------------------------------------------------------------- D|---2-----3---------------------------------------------------------------- A|-------------------------------------------------------------------------- E|--------------------------------------------------------------------------

Fm CD

The outro is like this x2
e|-------0-------0---------------1-------1----------------------------------
B|-----1---1---3---3-1---------1---1---3---3-1------------------------------
G|---2-------2---------2-----1-------1---------1----------------------------
D|-2---------------------2-3---------------------3--------------------------
A|--------------------------------------------------------------------------
E|--------------------------------------------------------------------------
and then this once
e|-------0-------0---------------1------------------------------------------
B|-----1---1---3---3-1---------1--------------------------------------------
G|---2-------1---------2-----1----------------------------------------------
D|-2---------------------2-3------------------------------------------------
A|--------------------------------------------------------------------------
E|--------------------------------------------------------------------------
and then repeat the whole outro thing again and again to fade. So some idea of timings:

Intro

Am

Verse 1

I heard a rumour They travel farAm You know what it's like The way people arGme They talk and they talk Though they don't understaAmnd They'll whisper and whisper And lie on demandGm Verse 1.5 Please tell me now I want to know I have to hear it from your lips Say it's not sAmo Fm

Verse 2

I heard it on Monday And I laughed a while I heard it on Tuesday I managed to smile I heard it on Wednesday My patience was tried I heard it on Thursday And I hurt inside I want to know The depths of your mind Tell me this whole thing is madness And we're doing fine

B

FmPut your little hand in Ammine And believe in love FmPut your head on my Amchest And Ambreathe love FmBreathe love FmBreathe love FmBreathe love

Am Fm Am

Verse 3

a lil different): I heard it from PetAmer Who heard it from PaAmul Who heard it from someoGmne I don't know at alGml I heard it from MaAmry Who heard it from RuAmth Who swore on the bibGmle She's telling the truGmth I heard it from SimAmon Who heard it from JamAmes Confirming with SarGmah That I was to blaGmme I heard it from JoseAmph Who heard it from JoAmhn Who said with convictiGmon That all hope was goGmne Verse 3.5: So I need to know Your alibis I need to hear that you love me Before you say goodbAmye Fm Before you say goodbAmye Fm Before you say goodbAmye Fm Outro Before you say goodbye