Derek Webb - Lover Chords

 
         
         
         
         
         
X
3
2
1
3 fr
         
         
         
         
         
X
1
2
3
4
1
8 fr
         
         
         
         
         
1
3
4
2
1
1
3 fr
         
         
         
         
         
X
1
X
3
4
1
5 fr
         
         
         
         
         
3
2
1
1
1
4
10 fr
         
         
         
         
         
X
X
1
3
4
3

12 fr
         
         
         
         
         
X
4
3
1
2
1
3 fr
         
         
         
         
         
X
         
         
         
         
         
1
3
4
2
1
1
5 fr
         
         
         
         
         
X
4
3
1
2
1
3 fr
         
         
         
         
         
X
X
1
2
4
3
         
         
         
         
         
X
X
3
2
1
1
8 fr
         
         
         
         
         
X
1
3
3
3
1
10 fr
         
         
         
         
         
4
3
1
1
1
X

10 fr
         
         
         
         
         
3
2
1
1
1
4
         
         
         
         
         
2
3
3 fr
         
         
         
         
         
X
X
2
4
1
7 fr
         
         
         
         
         
X
1
3
4
2
1
2 fr
         
         
         
         
         
X
X
1
3
4
2
3 fr
         
         
         
         
         
X
3
2
4
1
4 fr
         
         
         
         
         
X
4
3
1
2
X

12 fr
         
         
         
         
         
1
3
4
1
1
1
         
         
         
         
         
3
2
4
3 fr
         
         
         
         
         
1
3
4
2
1
1
         
         
         
         
         
2
1
3
4
3 fr
         
         
         
         
         
X
X
3
2
1
1
5 fr
         
         
         
         
         
X
X
1
3
4
3
7 fr
         
         
         
         
         
X
4
3
1
2
1

10 fr
         
         
         
         
         
X
1
2
3
4
X
10 fr
         
         
         
         
         
X
1
3
3
3
1
12 fr
         
         
         
         
         
3
2
1
1
1
4
         
         
         
         
         
X
2
3
1
5 fr
         
         
         
         
         
1
3
4
1
1
1
5 fr
         
         
         
         
         
X
X
1
1
1
8 fr
         
         
         
         
         
X
3
2
4
1
2 fr
         
         
         
         
         
X
1
4
4
4
7 fr
         
         
         
         
         
X
1
3
4
2

9 fr
         
         
         
         
         
X
4
3
1
2
X
12 fr
         
         
         
         
         
X
1
3
4
2
1
5 fr
         
         
         
         
         
X

Am/G

         
         
         
         
         
4
X
2
3
1
No chord
Standard guitar tuning:
E
A
D
G
B
E
No capo

Intro

      C
e|----0--0-0-0-0------0-0-0-0------0-0-0-0---------------------------------|
B|----1--1-1-1-1------1-1-1-1------1-1-1-1---------------------------------|
G|----0----------0h2-------------------------------------------------------|
D|----2-----------------------0h2------------3-2-0-h2----------------------|
A|----3--------------------------------------------------------------------|
E|----x--------------------------------------------------------------------|
Progression:

C F C

C Em F G

Am Em F G

C Am Am/G F G C

Riff 1

I play this fast as a transition to the Am, but it's optional

G

e|-------3---3-3-3----| B|-------3---3-3-3----| G|-------0---0-0-0----| D|-------0---3-2-0----| A|-------3------------| E|-------3------------|

Riff 2

         G                           C
e|-------3---3-3-----------------------------------------------------------|
B|-------3---3-3-----------------------------------------------------------|
G|-------0---------0h2--2h3--3-2-0-----------------------------------------|
D|-------0-----------------------------------------------------------------|
A|-------3-----------------------------------------------------------------|
E|-------3-----------------------------------------------------------------|