Die Aerzte - Buddy Hollys Brille Chords

 
         
         
         
         
         
X
1
2
3
5 fr
         
         
         
         
         
1
3
4
2
1
1
2 fr
         
         
         
         
         
X
1
1
1
4
         
         
         
         
         
X
X
1
2
2 fr
         
         
         
         
         
3
2
1
1
1
4
7 fr
         
         
         
         
         
X
X
1
3
4
3

9 fr
         
         
         
         
         
X
4
3
1
2
1
12 fr
         
         
         
         
         
X
1
3
3
3
1
         
         
         
         
         
X
X
1
3
2
2 fr
         
         
         
         
         
X
4
3
1
2
1
5 fr
         
         
         
         
         
X
1
2
3
4
1
5 fr
         
         
         
         
         
X
1
4
4
4
X
7 fr
         
         
         
         
         
4
3
1
1
1
X
7 fr
         
         
         
         
         
3
2
1
1
1
4

10 fr
         
         
         
         
         
1
3
4
2
1
1
12 fr
         
         
         
         
         
X
X
1
3
4
3
5 fr
         
         
         
         
         
X
X
         
         
         
         
         
2
3
1
4 fr
         
         
         
         
         
X
4
3
1
2
1
7 fr
         
         
         
         
         
X
1
4
4
4
X
2 fr
         
         
         
         
         
X
X
1
2
4
3
4 fr
         
         
         
         
         
4
3
1
2
1
7 fr
         
         
         
         
         
X
1
3
3
3
1

9 fr
         
         
         
         
         
4
3
1
1
1
X
9 fr
         
         
         
         
         
3
2
1
1
1
4
12 fr
         
         
         
         
         
1
3
4
2
1
1
4 fr
         
         
         
         
         
X

F

variations
         
         
         
         
         
1
3
4
2
1
1
         
         
         
         
         
X
X
3
2
1
1
6 fr
         
         
         
         
         
X
4
3
1
2
1
4 fr
         
         
         
         
         
X
X
1
2
4
3
9 fr
         
         
         
         
         
X
1
3
3
3
1
11 fr
         
         
         
         
         
4
3
1
1
1
X

11 fr
         
         
         
         
         
3
2
1
1
1
4
         
         
         
         
         
X
1
1
1
3
         
         
         
         
         
X
1
3
5 fr
         
         
         
         
         
1
3
1
2
1
1
7 fr
         
         
         
         
         
X
1
3
2
4
2 fr
         
         
         
         
         
4
3
1
1
1
2
5 fr
         
         
         
         
         
1
3
1
2
4
1

7 fr
         
         
         
         
         
X
X
1
3
2
4
10 fr
         
         
         
         
         
X
3
2
4
1
12 fr
         
         
         
         
         
X
1
3
3
3
4
         
         
         
         
         
X
1
1
1
1
2 fr
         
         
         
         
         
4
3
1
1
1
1
11 fr
         
         
         
         
         
X
2
1
1
4
3
         
         
         
         
         
X

Dsus4

variations
         
         
         
         
         
X
X
1
3
4
2 fr
         
         
         
         
         
X
3
4
1
2
X
5 fr
         
         
         
         
         
X
1
3
3
4
1
5 fr
         
         
         
         
         
X
1
1
3
4
1
10 fr
         
         
         
         
         
1
3
3
3
1
1
10 fr
         
         
         
         
         
1
1
3
4
1
1

12 fr
         
         
         
         
         
X
X
1
3
4
4
No chord
Standard guitar tuning:
E
A
D
G
B
E
No capo
Akkorde:

A D E F A7 A6

1:-0-|-2-|-0-|-2-|-3-|-2-| 2:-2-|-3-|-0-|-2-|-2-|-2-| 3:-2-|-2-|-1-|-2-|-2-|-2-| 4:-2-|-0-|-2-|-4-|-2-|-2-| 5:-0-|---|-2-|-4-|-0-|-0-| 6:---|---|-0-|-2-|---|---|

Intro

          A       D        E                A       D        E
1:-----------0-----|2-----0---------|----------0-----|2-----0---------|
2:-------------2-3-|--3-----0----3--|3-2-0-------2-3-|--3-----0---3---|
3:-----------------|----2-----------|--------2-------|----2-----------|
4:-----------------|----------2-----|----------------|----------2-----|
5:-------0---------|----------------|----------------|----------------|
6:-0-2-4-----------|----------------|----------------|----------------|
            A               F
1:-------|----0----------|-----2---2----|
2:-3-2-0-|----2--3--2--0-|-----2-2-2-2--|
3:-------|--2-2--------2-|-----2-2-2-2--|
4:-------|--2------------|--4--4-4---4--|
5:-------|--0------------|--4--4--------|
6:-------|---------------|--2--2--------|
Er... ..auch braune.. 1.Strophe: Er Ahatte braune Augen und Fauch braune Haare, Er Ahatte eine Brille und Feine Gitarre. Auf Ader Gitarre spielte er Fbis zur Extase, Und die ABrille trug er immer Fauf seiner Nase. Wo-u-Ahou. D A A7 A6 A

Refrain

Er Dsang Dsus4wie einD EngFel und war übeErall bekannt. Zum DSchlafenDsus4ge-henD hinFg er die GitarEre an die Wand. D Dsus4 D F E D^4 D Doch seine Brille hat er niemals abgesetzt.
D^4 D-Fill:
1:--2^3--3--3^2--2-2--|
2:--3----3--3----3-3--|
3:--2----2--2----2-2--|
4:--------------------|
5:--------------------|
6:--------------------|
f# E (-->Intro) A Wo ist Buddy Holly's Brille jetzt? 2.Strophe: AEr war schlank und hatte FGlück bei den Frauen. Er Abrauchte ihnen nur in die FAugen zu schauen. A Wenn ihn die Brille daFbei einmal störte, Dann Asang er so lange, bis Fsie ihn erhörte. Wo-Au-houD! A A7 A6 A

Refrain

Er Dstieg Dsus4in einD FluFgzeug und griEnste hinaus. Von Doben Dsus4sah dieD ErdFe überwälEtigend aus. D Dsus4 D F E D^4 D Das Flugzeug stürzte ab, und die Welt war entsetzt. f# E (-->Intro) A Wo ist Buddy Holly's Brille jetzt??

Interlude

4x:

A F

1:-------------|------------------------| 2:--2--3-2--0--|------------------------| 3:--2--2-2--2--|-2(8x)-4^2-2-2--4^2-2-2-| 4:--2--2-2-----|------------------------| 5:-------------|------------------------| 6:-------------|------------------------|
Dann

D

1:--2--2-3-2--|-/12-12-12-12-12-12--| 2:--3--3-3-3--|-/12-12-12-12-12-12--| 3:--2--2-2-2--|-/13-13-13-13-13-13--| 4:------------|-/14-14-14-14-14-14--| 5:------------|-/14-14-14-14-14-14--| 6:------------|-/12-12-12-12-12-12--|
3.Strophe: Um die verAschwundene Brille entFstand eine Sage. Es Ahieß, man könne singen, Fwenn man sie trage. Viele ASchurken waren deshalb Fhinter ihr her, Doch von Adenen trägt die Brille garanFtiert keiner mehr. Wo-u-Ahou!D A A7 A6 A

Refrain

Es Dstand in seinem FTestament, es Ewar sein letzter Wille. "Wenn Dihr mich einst beFgraben müsst, dann Enur mit meiner Brille!" D F E D^4 D
Damit ist auch dieses Rätsel   endlich gelöst:
      f#            E             (-->Intro) A
Buddy Holly ist mit seiner Brille ver--------west.
Die Dganze Dsus4Welt (außDer RusFsland) hat BudEdy Holly geliebt. Als Der so Dsus4jung gesDtoFrben ist, waren allEe Menschen betrübt. D Dsus4 D F E D^4 D Und das ist ein guter Grund, sich selber umzubringen. Denn im FHimmel wird EBuddy wieder für uns Fsingen...