Die Aerzte - Gerusch Chords

 

Cm

variations
4 fr
         
         
         
         
X
1
3
4
2
1
9 fr
         
         
         
         
1
3
4
1
1
1
         
         
         
         
X
4
2
1
X
X
         
         
         
         
X
4
3
1
2
X
4 fr
         
         
         
         
X
1
X
X
2
1
11 fr
         
         
         
         
X
X
1
3
4
2

4 fr
         
         
         
         
X
X
7 fr
         
         
         
         
1
3
4
2
1
1
         
         
         
         
X
2
1
X
3
         
         
         
         
X
1
4
4
4
X
         
         
         
         
X
1
3
3
3
1
4 fr
         
         
         
         
4
3
1
1
1
X
4 fr
         
         
         
         
3
2
1
1
1
4

9 fr
         
         
         
         
X
X
1
3
4
3
11 fr
         
         
         
         
X
4
3
1
2
1

F

variations
         
         
         
         
1
3
4
2
1
1
         
         
         
         
X
X
3
2
1
1
6 fr
         
         
         
         
X
4
3
1
2
1
4 fr
         
         
         
         
X
X
1
2
4
3
9 fr
         
         
         
         
X
1
3
3
3
1
11 fr
         
         
         
         
4
3
1
1
1
X

11 fr
         
         
         
         
3
2
1
1
1
4
         
         
         
         
2
3
1
4 fr
         
         
         
         
X
4
3
1
2
1
7 fr
         
         
         
         
X
1
4
4
4
X
2 fr
         
         
         
         
X
X
1
2
4
3
4 fr
         
         
         
         
4
3
1
2
1
7 fr
         
         
         
         
X
1
3
3
3
1

9 fr
         
         
         
         
4
3
1
1
1
X
9 fr
         
         
         
         
3
2
1
1
1
4
12 fr
         
         
         
         
1
3
4
2
1
1
4 fr
         
         
         
         
X
         
         
         
         
X
1
2
3
5 fr
         
         
         
         
1
3
4
2
1
1
2 fr
         
         
         
         
X
1
1
1
4
         
         
         
         
X
X
1
2
2 fr
         
         
         
         
3
2
1
1
1
4
7 fr
         
         
         
         
X
X
1
3
4
3

9 fr
         
         
         
         
X
4
3
1
2
1
12 fr
         
         
         
         
X
1
3
3
3
1
         
         
         
         
X
1
3
4
2
1
7 fr
         
         
         
         
1
3
4
1
1
1
         
         
         
         
X
1
3
4
2
X
7 fr
         
         
         
         
X
X
3
1
1
1
9 fr
         
         
         
         
X
X
1
3
4
2
11 fr
         
         
         
         
X
4
3
1
2
X

C

variations
4 fr
         
         
         
         
X
1
2
3
4
1
         
         
         
         
X
4
3
1
2
1
4 fr
         
         
         
         
X
1
4
4
4
X
6 fr
         
         
         
         
4
3
1
1
1
X
6 fr
         
         
         
         
3
2
1
1
1
4
9 fr
         
         
         
         
1
3
4
2
1
1

11 fr
         
         
         
         
X
X
1
3
4
3

A

variations
4 fr
         
         
         
         
1
3
4
2
1
1
4 fr
         
         
         
         
X
X
3
2
1
1
6 fr
         
         
         
         
X
X
1
2
4
3
         
         
         
         
3
2
1
1
1
4
8 fr
         
         
         
         
X
4
3
1
2
1
11 fr
         
         
         
         
X
1
2
3
4
X

11 fr
         
         
         
         
X
1
3
3
3
1

E

variations
3 fr
         
         
         
         
X
4
3
1
2
1
6 fr
         
         
         
         
X
1
2
3
4
1
         
         
         
         
X
X
1
2
4
3
3 fr
         
         
         
         
X
4
3
1
2
X
8 fr
         
         
         
         
4
3
1
1
1
X
8 fr
         
         
         
         
3
2
1
1
1
4

11 fr
         
         
         
         
1
3
4
2
1
1

Fm

variations
         
         
         
         
1
3
4
1
1
1
4 fr
         
         
         
         
X
X
1
3
4
2
         
         
         
         
X
X
3
1
1
1
9 fr
         
         
         
         
X
1
3
4
2
1
6 fr
         
         
         
         
X
4
3
1
2
X

Am

variations
4 fr
         
         
         
         
1
3
4
1
1
1
6 fr
         
         
         
         
X
X
1
3
4
2
4 fr
         
         
         
         
X
X
3
1
1
1
         
         
         
         
4
2
1
X
X
X
8 fr
         
         
         
         
X
4
3
1
2
X
11 fr
         
         
         
         
X
1
3
4
2
1
         
         
         
         
X
3
2
1
3 fr
         
         
         
         
X
1
2
3
4
1
8 fr
         
         
         
         
1
3
4
2
1
1
3 fr
         
         
         
         
X
1
X
3
4
1
5 fr
         
         
         
         
3
2
1
1
1
4
10 fr
         
         
         
         
X
X
1
3
4
3

12 fr
         
         
         
         
X
4
3
1
2
1
3 fr
         
         
         
         
X
         
         
         
         
1
3
4
2
1
1
5 fr
         
         
         
         
X
4
3
1
2
1
3 fr
         
         
         
         
X
X
1
2
4
3
         
         
         
         
X
X
3
2
1
1
8 fr
         
         
         
         
X
1
3
3
3
1
10 fr
         
         
         
         
4
3
1
1
1
X

10 fr
         
         
         
         
3
2
1
1
1
4
         
         
         
         
3
2
4
3 fr
         
         
         
         
1
3
4
2
1
1
         
         
         
         
2
1
3
4
3 fr
         
         
         
         
X
X
3
2
1
1
5 fr
         
         
         
         
X
X
1
3
4
3
7 fr
         
         
         
         
X
4
3
1
2
1

10 fr
         
         
         
         
X
1
2
3
4
X
10 fr
         
         
         
         
X
1
3
3
3
1
12 fr
         
         
         
         
3
2
1
1
1
4
         
         
         
         
X
X
1
3
2
2 fr
         
         
         
         
X
4
3
1
2
1
5 fr
         
         
         
         
X
1
2
3
4
1
5 fr
         
         
         
         
X
1
4
4
4
X
7 fr
         
         
         
         
4
3
1
1
1
X
7 fr
         
         
         
         
3
2
1
1
1
4

10 fr
         
         
         
         
1
3
4
2
1
1
12 fr
         
         
         
         
X
X
1
3
4
3
5 fr
         
         
         
         
X
X

Em

variations
6 fr
         
         
         
         
X
1
3
4
2
1
         
         
         
         
X
X
1
3
4
2
3 fr
         
         
         
         
X
4
2
1
X
X
6 fr
         
         
         
         
X
1
X
X
2
1
3 fr
         
         
         
         
X
4
3
1
2
X
11 fr
         
         
         
         
1
3
4
1
1
1

G

variations
4 fr
         
         
         
         
1
3
4
2
1
1
4 fr
         
         
         
         
X
X
3
2
1
1
6 fr
         
         
         
         
X
X
1
2
4
3
         
         
         
         
3
2
1
1
1
4
8 fr
         
         
         
         
X
4
3
1
2
1
11 fr
         
         
         
         
X
1
2
3
4
X

11 fr
         
         
         
         
X
1
3
3
3
1
         
         
         
         
X
1
3
4
X
X
7 fr
         
         
         
         
1
3
4
X
X
X
9 fr
         
         
         
         
X
X
1
3
4
X
         
         
         
         
X
X

F5

variations
         
         
         
         
1
3
4
X
X
X
4 fr
         
         
         
         
X
X
1
3
4
X
9 fr
         
         
         
         
X
1
3
4
X
X

C5

variations
4 fr
         
         
         
         
X
1
3
4
X
X
9 fr
         
         
         
         
1
3
4
X
X
X
11 fr
         
         
         
         
X
X
1
3
4
X
4 fr
         
         
         
         
X
X
         
         
         
         
X
X
1
2
X
5 fr
         
         
         
         
X
1
3
4
X
X
10 fr
         
         
         
         
1
3
4
X
X
X

E5

variations
         
         
         
         
X
X
1
3
4
X
6 fr
         
         
         
         
X
1
3
4
X
X
11 fr
         
         
         
         
1
3
4
X
X
X
6 fr
         
         
         
         
X
X

A5

variations
4 fr
         
         
         
         
1
3
4
X
X
X
6 fr
         
         
         
         
X
X
1
3
4
X
11 fr
         
         
         
         
X
1
3
4
X
X
4 fr
         
         
         
         
X
X
No chord
Standard guitar tuning:
E
A
D
G
B
E
No capo

Intro

C#m - H - F# x 6 Du wCmeißt nicht nur alles, du wBeißt alles besFser Dein VCmerstand ist schärfer als ein SBchweizer MesFser, du bist KCmlugscheißermann B -F und iCmch bin dein Fan B F Mit deinen GeCmistesblitzen, kann man KathedBralen erheFllen Man bCmraucht dir noch nicht mal eine FBrage zu stFellen, du bist

Cm B F x 2

Klugscheißerman WCmer genau war MBata HaFri? CmWo starb eigentBlich James DFean? WCmie viel U/min hat Bein FeFrrari - uCmnd was zum Henker sBind U/mFin? KCmlugscheißerman B F- früher warst du BCmesserwisserboy B F Du bCmleibst dir treu B F (oh, wie Cmich mich für freu)B F Du kCmennst jede Antwort auf aBlle FraFgen DCmie Wahrheit kannst du nämlich seBlbst nicht ertFragen Das kCmlingt vielleicht seltsam, doch dasB musste sFein Das war fCmast ein Zitat von PBeter HFein

Cm B F x 2

Klugscheißerman (bla bla bla bla)

Refrain

DCmeine WoErte voller WeFißheit fAließen aus den BTiefen deines SCmeins PCmausenlEos in meine OhrFen - oAhne Dich wär ich verloren

Bridge

Ich wüsst nicht aFus noch eCmin - und dEarum wird iFch dir ewig Dankbar sCmein, ich kErieche vor dir aFuf dem Gehweg

Fan

Intro x 2 Wenn ich Cmdich etwas frage, kommen Bmir die TrFänen Du hast nicht eCmine Antwort - nBein Du hast zeFhn! Du wCmeißt es, du kennst es, du kBannst es versFtehn Und wenns ’n CmFilm darüber gibt, hast Bdu ihn Fgesehen Und wenn’s ’n BCmuch gibt, dann hast Bdu es geFlesen Wenn Cmdu dich mal irrst, fress iBch ’nen BeFsen WCmärst du ’ne Kirchentür, dBu hingst voller TFhesen Du Cmbist das Perfekte LBebeweFsen KCmlugscheißerman B -F KlCmugscheißerman B -F verheiratet mit RCmechthabewoman B F

Cm B F

Deine Schuld

Intro

e-----------------|----------------|------------------|
b---------2-------|--------6-------|------------------|
g------------3----|-----------6----|---------5--------|
d-----3-----------|-----6----------|------------6-----|          x 6
a--1--------------|--4-------------|-----6------------|
e-----------------|----------------|--4---------------|
Setzt bei 3tem mal Intro ein:
e---|-----------------|---------------|---------------|
b---|-----------------|---------------|---------------|
g---|-----------------|---------------|---------------|
d---|-----------------|---------------|---------------|
a---|-1-1---1-1-1-1-1-|--4-4---4------|---------------|
e-4-|-----------------|---------------|---4-4--4-4-4--|
Setzt bei 5tem mal Intro ein:
e------------------|--------------------------|
b------------------|--------------------------|
g------------------|--------------------------|
d------------------|--------------------------|
a--8-8---8-8-8-8-8-|--11-11---11-11-11-11-11--|
e------------------|--------------------------|

Riff 1

e-----------------|--------------------|-----------------|---------------|
b-----------------|--------------------|-----------------|---------------|
g-----------------|--------------------|-----------------|---------------|
d-----------------|--------------------|-----------------|---------------|
a--1---3--4--3--4-|-8-8-8--8-6---4--3--|--1---3--4--3--4-|---------------|
e-----------------|--------------------|-----------------|---4----4---4--|
Strophe: Hast du dich hBmeute schon geärgert, war es heCute wieder scAhlimm Hast du dBmich wieder gefragt, warum kein MCensch was unternAimmt Du mBmusst nicht akzeptieren, was dir überhCaupt nicht paAsst Wenn du deBminen Kopf nicht nur zum Tragen eCiner Mütze hEast WooooouuuuuuooFoooooo

Refrain

Es ist nicht dBeine ScFmhuld, dass die WCmelt ist, wie sie iEst Es wär' nur deAmine SchFmuld, wenn sie so blEeibt Es ist nicht deBine ScFmhuld, dass die WCmelt ist, wie sie iEst Es wär' nur deAmine SchFmuld, wenn sie so blEeibt, wenn sie so blCeibt

Riff 1

Strophe: Glaub keBminem, der dir sagt, dass du nCichts verändern kaAnnst DBmie, die das behaupten, haben nur Cvor Veränderungen AAngst Es sind die SBmelben, die erklären, es sei Cgut so, wie es Aist Und wBmenn du etwas ändern willst, dann bCist du autoEmatisch TerrForist

Refrain

Es ist nicht dBeine ScFmhuld, dass die WCmelt ist, wie sie iEst Es wär' nur deAmine SchFmuld, wenn sie so blEeibt Es ist nicht deBine ScFmhuld, dass die WCmelt ist, wie sie iEst Es wär' nur deAmine SchFmuld, wenn sie so bleEibt, wenn sie so bleibt

Bridge

Weil JAeder, der die WFelt nicht ändern wEill, ihr Todesurteil unterCmschreibt Intro x 2 Strophe: Zum Text einfach Intro dazuspielen! "Lass uns Diskutieren, denn in unserm schönen Land sind zumindest Theoretisch alle furchtbar tolerant Worte wollen nichts bewegen, Worte tun niemand weh Darum lass uns drüber reden, Diskussionen sind ok" Nein - geh mal wBmieder auf die Straße, geh mal wCieder DemonstArieren Denn wer nicht mBmehr versucht zu kämpfen - kCann nur verAlieren! DBmie dich verarschen, die hCast du selbst geAwählt Darum lBmass sie deine Stimme hören, weil jCede Stimme zäEhlt. WooooooooouuuuuoFooooooo

Refrain

Es ist nicht dBeine ScFmhuld, dass die WCmelt ist, wie sie iEst Es wär' nur deAmine SchFmuld, wenn sie so blEeibt Es ist nicht deBine ScFmhuld, dass die WCmelt ist, wie sie iEst Es wär' nur deAmine SchFmuld, wenn sie so blEeibt Es ist nicht dBeine ScFmhuld, dass die WCmelt ist, wie sie iEst Es wär' nur deAmine SchFmuld, wenn sie so blEeibt Der Tag

Intro

e---------------------------|
b---------------------------|
g---5--4--2--0--------------|
d---------------3--2--0-----|
a------------------------3--|
e---------------------------|
C - a - F - G x 2 Strophe: Ich wCeiß noch wie wir uns das erAste mal sah'n, Du warst KFleinstadt-Kücken, ich war GGroßstadt-Hahn. ICch war der Duft der weitAen Welt für dich Und dFu hast dich Gott sei Dank gedGuscht für mich. Doch die LiCebe ging weg und böse WoArte kamen, DFu gabst mir Tier und noch schlGimmere Namen. Ich naCnnte dich Zicke und NeArvensäge Und von Fda an gingen wir geGtrennte Wege. Pre-Refrain: Doch jeDtzt stehst du vor mAir, UFnd du willst mir alles nGocheinmal erklärn BDaby fehl ich dAir, dFoch was soll ich dir sagen, wGas willst du jetzt hörn?

Refrain

DCer Tag an dGem ich dich vermFisse ist noch nicht erfunden. DCer Tag an dGem ich dich vermFisse hat genau 0 Stunden. DAie Wahrheit iEst ich kann dich zFiemlich gut entGbehren. DCer Tag an dGem ich dich vermFisse muss erst noch gebaut werden.

Solo

    C               A                F                 G                C                  A
e-----------------|----------------|-----------------|-----------------|-----------------|-7-5~----------5-|
b-----------------|----------------|-----------------|--------------6-5|5~-------------8-|-----------------|
g-----------------|-4b--2---------2|/7~------------7-|-9--7------------|-----------------|-----------------|
d------------2--5-|----------------|-----------------|-----------------|-----------------|-----------------|
a---3~----5-------|----------------|-----------------|-----------------|-----------------|-----------------|
e-----------------|----------------|-----------------|-----------------|-----------------|-----------------|
   F                G
e--8-8-8-8---5--8-|-10---------15~-|
a-----------------|----------------|
g-----------------|----------------|
d-----------------|----------------|
a-----------------|----------------|
e-----------------|----------------|
Strophe: Es iCst ein bisschen anders als Adu vielleicht denkst, Ich war KFleinstadt-Stute, du warst GGroßstadt-Hengst. ICch betete dich damals zAiemlich an, Doch seitFdem hat sich einiges bei Gmir getan, Ohne dCich ist mein Leben tausendAmal so schön, Ich könnt mir sFpannenderes vorstelln als dich wGiederzusehn. Oder gClaubst du im ernst, ich käme gAern hier hin? Nein, mein FArzt hat entdeckt dass ich schGwanger bin. Pre-Refrain: Und jDetzt stehst du vor mAir, MFein großer Held warum wGirst du denn so bleich? IDch will nichts von dAir, Außer GFeld und zwar viel, schließlich bGist du reich.

Refrain

DCer Tag an dGem ich dich vermFisse, Mann hast du ne Ahnung. DCer Tag an dGem ich dich vermFisse ist nicht mal in Planung. RAeiß dich zusEammen, hFör jetzt endlich auf zu fleGnnen, da ... DCer Tag an dGem ich dich vermFisse steht nicht im Kalender. DCer Tag an dGem ich dich vermFisse ist noch nicht erfunden. DCer Tag an dGem ich dich vermFisse hat genau 0 Stunden. DAie Wahrheit iEst ich kann dich ziFemlich gut entbGehren. DCer Tag an dGem ich dich vermFisse muss erst noch gebaut werden. C

Solo

 C                A                F                G                C                A                F
e----------------|----------------|----------------|----------------|----------------|----------------|----------------|
b----------------|----------------|----------------|----------------|----------------|----------------|----------------|
g----5~----------|-7b---5---5-7-5-|7~--------------|----------7-9-10|/9---7--5-------|-9--7--5---7--9-|10~---10-10--9--|
d----------------|----------------|----------------|----------------|----------------|----------------|----------------|
a----------------|----------------|----------------|----------------|----------------|----------------|----------------|
e----------------|----------------|----------------|----------------|----------------|----------------|----------------|
 G                C                A                F                G                C                A
e----------------|--8--7-----8----|--7-----8--7----|-----8--7-------|----------------|----------------|----------------|
b----------------|--------8-------|-----8----------|--8--------8----|-10---8---5---8-|--8h10p8--------|--8h10p8--------|
g-7~-------------|----------------|----------------|----------------|----------------|----------------|----------------|
d----------------|----------------|----------------|----------------|----------------|----------------|----------------|
a----------------|----------------|----------------|----------------|----------------|----------------|----------------|
e----------------|----------------|----------------|----------------|----------------|----------------|----------------|

F G E

e----------------|----------------|----------------|
b--8h10p8--------|--8h10p8--6-5-3-|--3h5~----------|
g----------------|----------------|----------------|
d----------------|----------------|----------------|
a----------------|----------------|----------------|
e----------------|----------------|----------------|
Ein Mann

Riff 1

wird während dem Refrain gespielt)
e----------------|--------------------|
b----------------|--------------------|
g--6---6-4--6-4--|--4--4-4------------|
d--6---6-4--6-4--|--4--4-4--2--2-2-2--|
a--4---4-2--4-2--|--2--2-2--2--2-2-2--|
e----------------|----------0--0-0-0--|

Riff 2

wird während der Strophe gespielt)
                   p.m.
e----------------|--------------------|
b----------------|--------------------|
g--6--6----------|--4-4-4-4-----------|
d--6--6----------|--4-4-4-4--2-2-2-2--|
a--4--4----------|--2-2-2-2--2-2-2-2--|
e----------------|-----------0-0-0-0--|
Strophe: SCtreicheln iBst nicht Eso mein DCing - Sind wir denn hBier im SEtreichelzoo? ICm RohreverlBegen bEin ich KCing - und übverhaupt und sowieBso E

Refrain

Ich bin ein MCann, meine SBocken wasch ich iErgendwaCnn Mach mBir die Erde Euntertan -A weil ich es Bkann: Ich bin ein MCann B E C B E Strophe: CCharismBatisch, kEultiviCert und an der HBüfte EtätowiCert Ich zeigs dir, wBenn du vEor mir kniCest - da flippst du aus, wBenn du das siEehst:

Refrain

Ich bin ein MCann, ich geb dir eBine ÜberdoEsis fCun An mir hängt jBede Menge EuntendCran, Aguck es dir Ban: ich bin ein MaCnn B E C B E

Bridge

So subCtil Bwie wie ein APanzBer, so einCfühlsamB wie eine AAutobaBhn Riff 1 x 4 Refrain & Outro: Ich bin ein MCann, noch gefBährlicher als JEackie CChan Also bBitte fass mich vEorsichtig Aan - du bist in meinem BBann Ich habe dich in der HFand, denn ich bin so InteresAsant Obwohl ich nichts dafür kaAnn, ich hab mehr Glück als VerstaBnd: ICH BIN EIN MCANN
e--16~---16-16-15--13b--|
b-----------------------|
g-----------------------|
d-----------------------|
a-----------------------|
e-----------------------|
Jag Älskar Sverige!

Intro

B E

Du redest stundenlang mt mCir - B und ich hör dir nicht zEu BCin in Gedanken gar nicht hiAer, Bich hatte wieder mal ein Rendez-VoEus Ach nee, das heißt ja Déjà-CVu - B Egal. Du gehst mir auf den GeEist! UCnd darum hör ich dir nicht zAü, BIch seh Dich an und denke meist: Wie gEern würd ich jetzt in Schweden seCin. DWeil Jeder Schwede lacht und siGngt UBnd pausenlos das Tanzbein schwAingt bei 4B0 Grad und Sonnenschein. Ach, SchEweden ist das schönste Land der WCelt - DDort, wo am Strand die Palmen stGehn DBa will ich jetzt spazieren geAhen, weil mBir mein Schweden ziemlich gut gefäEllt In Schweden gehen die Uhren aCn - B ders und ich glaub, dass liegt darEan, dass MCangos dort und Blumen blAühn, Bzur Schönheit noch das Vitamin E So alle zwei, drei Jahre drCoht Bin Schweden eine HungesnEot ICch gebe gern, meistens RAeis - bekoBmm ich jetzt den Nobelpreis? Ach, SchEweden!, Ruf ich, Schweden alter FreuCnd! DIn dir, da fühl ich mich wGohl BBei Tanz, Gesang und AlkohAol - BDu bist so gar nicht eingezäunt Ach SchEweden, komm und gib mir deine HCand -D oh du beneidenswertes LaGnd WBo ich damals den Punk erfaAnd - BDu bist so anders, so entspannt E

Schwer schwedisches saxofonsolo

e---------------------------|-----------------------------|----------------------------|---------------------------|
b-----5--7--8s7--10---7-----|-----------------------------|----------------------------|---------------------------|
g-----------------------5~--|--5s4-4-4---4--7---5-5--4-4--|----------------------------|---------------------------|
d--7------------------------|-----------------------------|-------------------------2~-|--2-2---4--5---------------|
a---------------------------|-----------------------------|--0-0-2-3---3-3-3-----3-----|----------------3--2-2-2---|
e---------------------------|-----------------------------|-------------------5--------|---------------------------|
e------------------------------0---|
b------------------------------0---|
g------------------------------0---|
d------------------------------2---|
a--2-2-2--0-0-0----------------2---|
e----------------3-3-3--2-2-2--0---|
Du redest viel, du bist empCört, BDu schimpfst, Du schreist, Du hast gewEeint WCorte verhallen ungehAört. BCause i’ve got Schweden on my mind Ach, SchEweden, alte Hütte, altes PCferd - DWarum hast du dich nicht vermGehrt? ABuf dass die ganze Welt erfAährt: BZwei Schweden wären nicht verkehrt Kann dEenn nicht jedes Land wie Schweden seCin? DSo fröhlich und so unbeschwGert EBin Land in das man gerne fäAhrt: BMan kommt zu zweit und geht allein Ach, SchwEeden, komm und gib mir deine HCand,D du bist so furchtbar intereGssant EBin Gottverdammtes WohlfühllaAnd -B An jeder Ecke steht ein ElefEant C - D - G - B - A - B usw. Jag Älskar Sverige! Nichts in der Welt Es ist vorEmbei und der HBimmel ist schwarz, weil die SFonne hier nie wieder scCheint Es ist vorEmbei, doch ich hBoffe, dass das, was uns tFrennte, uns wieder veCreint Es ist vorEmbei und niBchts in der Welt wird es Fje wieder gutmachen kCönnen Es ist vorEmbei - wenn ich köBnnte, dann würde ich Fvor meinem Leben wegCrennen Würd die Augen versBchließen und ich würde probEmieren Meine GefBühle einfach Czu ignorEmieren Ich will so kBalt sein, dass alle eEmrfrieren Will mich nie mehr veArlieben, um nie mehr zu veBrliern EBs dauert noch, bis ich BbeGgreGife, was das hBeiGßt:G Es ist vorEmbei, ich wBeiß nicht warum - sag mir, wFas habe ich falsch geCmacht Es ist vorEmbei, du hast mein HBerz zerfetzt und dir gFar nichts dabei geCdacht Du bist so gBrausam - drum liebe ich dEmich Obwohl ich doch wBeiß, dass du nicht gut bist fCür miEmch Meine GefBühle sind an und führ sEmich Lächerlich eiAnfach - und einfach lächBerlich Weil jBeder Gedanke BnuGr uGm das Eine BkrGeisGt: Es ist vorEmbei, vorAbei, vorbBei ... x 4

Solo

e--------|----------------------|----------------------|---------------------|
b--7--9--|-11~------14-14-12-11-|----------14-14-12-11-|---------9-----7--9--|
g--------|------11--------------|--11-11---------------|------11-------------|
d--------|----------------------|----------------------|--11-----------------|
a--------|----------------------|----------------------|---------------------|
e--------|----------------------|----------------------|---------------------|
e----------------------|----------------------|---------------------|-------------|
b-11~------14-14-12-11-|----------14-14-12-11-|---------9-----7--9--|-------------|
g------11--------------|--11-11---------------|------11-------------|----11---8---|
d----------------------|----------------------|--11-----------------|-------------|
a----------------------|----------------------|---------------------|-------------|
e----------------------|----------------------|---------------------|-------------|
Es ist voEmrbei - doch idBiotischerweise will ich Fimmer noch bei dir sCein Es ist voEmrbei - und ich wBill nicht begreifen: Jeder MFensch ist für immer alClein Liebe ist nur ein TBraum, eine Idee und nicht mEmehr Tief im InBneren bleibt jeder Einsam Cund lEmeer Es heißt, dass jedes EBnde auch ein Anfang Emwär Doch warum tut es so Aweh und waum ist es so scBhwer Ich lBasse dich gehen, auch BweGnn Ges mich zerrBeiGßt G Es ist voEmrbei, vorAbei, vorBbei x 4 Es ist vorEmbei und niBchts in der Welt wird es Fje wieder gutmachen köCnnen Schneller leben Strophe:
        Nierensteine,   Blasentee,       ständig tut der Rücken weh.
e-----|----------0----|------------0---|----------0----|------------0---|
b-----|--------1------|----------0-----|--------1------|----------0-----|
g-----|------2--------|--------1-------|------2--------|--------1-------|
d-----|----2----------|------2---------|----2----------|------2---------|
a-----|--0------------|----2-----------|--0------------|----2-----------|
e--0--|---------------|--0-------------|---------------|--0-------------|
  Klosterfrau,     Melissengeist,           Vigara, oder     wie das heißt.
e----------0----|------------1-----------|----------0-----|------------0---|
b--------1------|----------0-------------|--------1-------|----------0-----|
g------0--------|--------0---------------|------2---------|--------1-------|
d----2----------|------0-----------------|----2-----------|------2---------|
a--3------------|----2-------------------|--0-------------|----2-----------|
e---------------|--3------------3-2-3-4--|----------------|--0-------------|
AAuf dem Kopf sitzt eEin Toupet, `Ane Brille, weil ich sEonst nichts seh' DCie Zähne machen riGchtig Spaß, sAie schlafen nachts im WaEsserglas. FAalten schlägt der dEicke Hals, aAuch ein Zeichen dEes Verfalls ECs muss dir nicht geGnauso geh'n. HAör auf mich, dann bEleibst du schön:

Refrain

STIRB JUANG! Stirb, so fGrüh es gFeht. STIRB JUANG! Am besten vor der PFubertGät. STIRB JUANG! Für mich ist es lGeider schon zu spFät. Aber du: STIRB JUANG! Strophe: KAurt Cobain hat Ees gewusst: AIm Alter droht GesEichtsverlust. WCas glaubst du, warum JeGsu Christ scAhon so jung gestEorben ist? JAimmy Hendrix uEnd Bruce Lee - aAlt geworden siEnd die nie. LCern von diesen VGorbildern - aAls Leiche hat dich jEeder gern.

Refrain

STIRB JUANG! Dann siehst du bGesser aFus. STIRB JUANG! Das gibt vGiel AppFlaus. STIRB JUANG! Zöger Ges nur nicht zu lange rFaus! a G F (x 3 und dann auf F bleiben) Los! Los! STIRB JUNG! Zwischenspiel: A Strophe: KAein Kontakt mehr zEu den Fans, wAegen der InkEontinenz OCb Sänger oder SGaitenquäler - TAote machen kEeine Fehler. PAarkinson mein nEächstes Ziel, Ada kann man schnelle AEchtel spieln DCas Gedächtnis Ges wird schwach, uAnd...äh...ähm...Bela?

Refrain

STIRB JUANG! Stirb in jGungen JaFhrn! STIRB JUANG! Stirb mit vFollem HaGar! STIRB JUANG! Für mich iGst der Zug längst abgefFahrn. STIRB JUANG! Stirb, so frGüh es geFht. STIRB JUANG! Am besten vor der PFubertGät. STIRB JUANG! Für mich iGst es leider schon zu sFpät. Aber du: STIRB JUANG! T-Error

Intro

e-------------|-------------|-------------|--------3-3-3-3|
b--2--2--3-2--|--2--2--3-2--|--2--2--3-2--|--2--2--0-0-0-0|
g--2--2--2-2--|--2--2--2-2--|--2--2--2-2--|--2--2--0-0-0-0|
d--2--2--2-2--|--2--2--2-2--|--2--2--2-2--|--2--2---------|
a-------------|-------------|-------------|---------------|
e-------------|-------------|-------------|---------------|
e-------------|-------------|-------------|--------3-3-3-3|
b--1--1--3-1--|--1--1--3-1--|--1--1--3-1--|--1--1--0-0-0-0|
g--2--2--2-2--|--2--2--2-2--|--2--2--2-2--|--2--2--0-0-0-0|
d--3--3--3-3--|--3--3--3-3--|--3--3--3-3--|--3--3---------|     x 2  clean!  x 2 overdrive!
a-------------|-------------|-------------|---------------|
e-------------|-------------|-------------|---------------|
IAch ruf dich an. Du bist mGein GFott der Rock’n’Roll-MuGsik WAie es dir geht, will wGissen, wFie's in deinem KGopf aussieht

Intro

OVERDRIVE) DAu bist bestimmt allein uGnd hFast gerad voll viel ZGeit DAu brauchst mich doch - Du willst miGch, gFib mir mehr AufmerksamkeGit! RIFF 1 x 2 RIFF 2 Ich ruf dich an. Wähle die Zahlen ...

Refrain

IAch ruf dich an, ich rGuf dich Fan.

G A

Do Do

Ich ruf dich an, ich rGuf dich Fan.

G A

Do Do

Intro

OVERDRIVE) Du gehst nicht ran! IAch hab schon tausendGmal, FTag und Nacht, bei dir probGiert VAersucht dich anzurufGen,F doch du hast nich reaGgiert

Intro

OVERDRIVE) IAch geb dir alles, was Fich hGab, du bist so undankbGar BAist arrogant und iFgnoranGt, spiel hier doch nicht den StaGr! RIFF1 x 2 RIFF 2 Du wirst schon sehen, dass Lachen wird dir vergehen ...

Refrain

IAch ruf dich an, ich rGuf dich Fan.

G A

Do Do

Ich ruf dich an, ich rGuf dich Fan.

G A

Do Do

Intro

OVERDRIVE) Du gehst nicht ran!

Intro

OVERDRIVE) Ich weiß wo du wohnst Wo dein Auto steht Was du heute trägst Wo du shoppen gehst ...

Riff 1

  E                  F
e----------0------|-----------1------|
b------------0----|-------------1----|
g-------0---------|-------2----------|
d-----------------|------------------|
a-----------------|------------------|
e--0--------------|--1---------------|

Riff 2

e-----------------------------------|
b-----------------------------------|
g-----------------------------------|
d-----------------------------------|
a-0-0-0-0-0-0-0-0-0-0-0-0-0---usw.--|
e-----------------------------------|
Unrockbar

Intro

F B F B F

Strophe 1 (Clean): Ich hab den TFag so oft verflucht als wir uns kCennenlernten. Ich habe alAmles schon versucht, hab unter Emden besternten Himmel MexiBkos Dir meine Lieblingsplatten aFufgelegt, Du hast Dich nCicht bewegt. Das hat mich aAmufgeregt. Pre-Refrain: DB5u sagst, Du findest zwar den BeF5at nicht, Aber Ricky Martin niB5edlich. Der ist so unappetC5itlich, Wie wir beD5ide unterschiedlich.

Refrain

BE5aby, ich kann DA5ich gut leiden - B5es ist wirklich wB5ahr. E5 A5 C5 Riff 1 Das wird nie was mit uns beiden, eines ist mir klar (so klar): Riff 2 Du bist unrockbar Riff 2 Du weißt nicht was das für ein Schock war. Meine Freundin ist unrockbar Strophe 2 (Clean): Wie kaFnnst Du bei den Beatsteaks ruhig sCitzen bleiben, Wenn Dir doch ScAmhlagersänger Tränen in die EmAugen treiben. Seit Du bei mir Bwohnst schallt jeden Tag Shakira Fdurch das Haus. Ich halt' es Cnicht mehr aus. Ich glaub' ich sAmchmeiß Dich raus. Pre-Refrain: DB5u sagst, du magst es still und frF5iedlich. Sei doch nicht so ungemB5ütlich. Deine Schmusemasche ziCeht nicht. Pack Deine SD5achen. Ciao, man sieht sich.

Refrain

JE5a, Du hast uns sA5chon gesehen vB5or dem TraualB5tar. E5 A5 C5 Riff 1 Baby, das wird nie geschehen Du bist ganz und gar: Riff 2 Unrockbar!!! Unrockbar!!! Yeah, Yeah, Yeah, Unrockbar!!! Riff 2 Unrockbar!!!

Bridge

DB5och endlich fällt der Groschen, C5und Du beginnst zu moshen. Heavy Metal-Part (Overdriiiiive!!!):

E-E-E-E-E-E-E-F x 4

Riff 3 x 3

E C C C C C C C C

End-Bridge: BE5aby, sB5ieh es nicht so C5eng, fang jetzt eB5ndlich an zu bE5angen. Dann hast B5Du auch bald kapC5iert, dass der RB5ock die Welt regiert.

Refrain

Riff 2

Unrockbar!!! Riff 2 D#5 Unrockbar!!! Unrockbar!!! Yeah, Yeah, Yeah!!!

Riff 1

e------------------------------------
b------------------------------------
g------------------------------------
d--------3---4--------------3---4----
a----2------------------1------------
e------------------------------------

Riff 2

    E5                        A5                        B5                 B5 C5 B5
e---------------------------|--------------------------|----------------------------------
b---------------------------|--------------------------|----------------------------------
g---------------------------|--------------------------|----------------------------------
d---------------------------|--------------------------|----------------------------------
a---9-9-9-9----9-9-9-9---9--|--9-9-9-9----9-9-9-9---9--|--9-9-9-9----9-9-9-9---9-11-8-----
e---------------------------|--------------------------|----------------------------------

Riff 3

Tune 1/2 step down
e--------------------------------------
b--------------------------------------
g-------------------------------9------
d--------------------------------------
a---2---2---2-2--2-2--2---5------------
e---0---0---0-0--0-0--0---3------------