Die Aerzte - Wie Am Ersten Tag Chords

 
         
         
         
         
         
X
1
2
3
5 fr
         
         
         
         
         
1
3
4
2
1
1
2 fr
         
         
         
         
         
X
1
1
1
4
         
         
         
         
         
X
X
1
2
2 fr
         
         
         
         
         
3
2
1
1
1
4
7 fr
         
         
         
         
         
X
X
1
3
4
3

9 fr
         
         
         
         
         
X
4
3
1
2
1
12 fr
         
         
         
         
         
X
1
3
3
3
1
         
         
         
         
         
X
X
1
3
2
2 fr
         
         
         
         
         
X
4
3
1
2
1
5 fr
         
         
         
         
         
X
1
2
3
4
1
5 fr
         
         
         
         
         
X
1
4
4
4
X
7 fr
         
         
         
         
         
4
3
1
1
1
X
7 fr
         
         
         
         
         
3
2
1
1
1
4

10 fr
         
         
         
         
         
1
3
4
2
1
1
12 fr
         
         
         
         
         
X
X
1
3
4
3
5 fr
         
         
         
         
         
X
X
         
         
         
         
         
3
2
4
3 fr
         
         
         
         
         
1
3
4
2
1
1
         
         
         
         
         
2
1
3
4
3 fr
         
         
         
         
         
X
X
3
2
1
1
5 fr
         
         
         
         
         
X
X
1
3
4
3
7 fr
         
         
         
         
         
X
4
3
1
2
1

10 fr
         
         
         
         
         
X
1
2
3
4
X
10 fr
         
         
         
         
         
X
1
3
3
3
1
12 fr
         
         
         
         
         
3
2
1
1
1
4
         
         
         
         
         
2
3
1
4 fr
         
         
         
         
         
X
4
3
1
2
1
7 fr
         
         
         
         
         
X
1
4
4
4
X
2 fr
         
         
         
         
         
X
X
1
2
4
3
4 fr
         
         
         
         
         
4
3
1
2
1
7 fr
         
         
         
         
         
X
1
3
3
3
1

9 fr
         
         
         
         
         
4
3
1
1
1
X
9 fr
         
         
         
         
         
3
2
1
1
1
4
12 fr
         
         
         
         
         
1
3
4
2
1
1
4 fr
         
         
         
         
         
X
         
         
         
         
         
1
3
4
2
1
1
5 fr
         
         
         
         
         
X
4
3
1
2
1
3 fr
         
         
         
         
         
X
X
1
2
4
3
         
         
         
         
         
X
X
3
2
1
1
8 fr
         
         
         
         
         
X
1
3
3
3
1
10 fr
         
         
         
         
         
4
3
1
1
1
X

10 fr
         
         
         
         
         
3
2
1
1
1
4
         
         
         
         
         
X
3
2
1
3 fr
         
         
         
         
         
X
1
2
3
4
1
8 fr
         
         
         
         
         
1
3
4
2
1
1
3 fr
         
         
         
         
         
X
1
X
3
4
1
5 fr
         
         
         
         
         
3
2
1
1
1
4
10 fr
         
         
         
         
         
X
X
1
3
4
3

12 fr
         
         
         
         
         
X
4
3
1
2
1
3 fr
         
         
         
         
         
X

A

variations
4 fr
         
         
         
         
         
1
3
4
2
1
1
4 fr
         
         
         
         
         
X
X
3
2
1
1
6 fr
         
         
         
         
         
X
X
1
2
4
3
         
         
         
         
         
3
2
1
1
1
4
8 fr
         
         
         
         
         
X
4
3
1
2
1
11 fr
         
         
         
         
         
X
1
2
3
4
X

11 fr
         
         
         
         
         
X
1
3
3
3
1
         
         
         
         
         
X
2
3
1
7 fr
         
         
         
         
         
1
X
4
4
4
X
4 fr
         
         
         
         
         
4
X
X
1
2
1
9 fr
         
         
         
         
         
X
X
1
1
1
4
4 fr
         
         
         
         
         
4
4
3
1
2
1
7 fr
         
         
         
         
         
1
1
2
3
4
1
7 fr
         
         
         
         
         
1
3
4
2
1
1
         
         
         
         
         
X
2
1
X
3
         
         
         
         
         
X
1
4
4
4
X
         
         
         
         
         
X
1
3
3
3
1
4 fr
         
         
         
         
         
4
3
1
1
1
X
4 fr
         
         
         
         
         
3
2
1
1
1
4

9 fr
         
         
         
         
         
X
X
1
3
4
3
11 fr
         
         
         
         
         
X
4
3
1
2
1
No chord
Standard guitar tuning:
E
A
D
G
B
E
No capo
Hey du, bleib Asteh'n! Ich Dweiß, wohin du Agehst! G Du brauchst nicht Aso zu tun, als Dob du nicht verGstehst. E FDu bist auf dem Weg zu Cihr, sie gehörte mal zu Gmir. F+C gezupft: FGestern hab ich sie erCkannt, sie ging mit dir Hand in GHand. A
   F              C
1:-1----1-------|-3-------------|
2:-1------1-----|-5----5--------|
3:-2--------2---|-5------5------|
4:-3----------3-|-5--------5----|
5:-3------------|-3----------3--|
6:-1------------|---------------|
Ab hier Akkorde 1x anschlagen: Für mich hat Asie heut' keine DZeit mehr, es ist SchAluß. G Gib ihr zum AAbschied von mir Geinen letzten DKuss. ADaß ich geweint hab, sag' ihr Fnicht, auch nicht, daß mein Herz zerDbricht, Sag nicht, daß ich's nicht erEtrag', sag ihr nur, daß ich sie Fmag.G

Refrain

Ich mag sie Anoch genauso, Gwie am ersten DTag. Ich mag sie Anoch genauso, Gwie am ersten DTag. Ich mag sie Anoch genauso, Gwie am ersten DTag. Ich mag sie Anoch genauso, Dwie am ersten ATag. E G 2. Strophe: Vor einem AJahr war ich alDlein, da traf ich Asie. G A D G Fill1 E/B Ich hab getanzt mit ihr, und hatte weiche Knie.
Fill1 (schnell hammern):
1:----------------------|
2:----------------------|
3:-7^9^7^9^7^9^7^9(4x)--| F+C gezupft: FWir tanzten bis spät in die CNacht, dann hab ich sie nach haus' geGbracht. Normal: FUnd dann vor ihrer CTür bekam ich einen Kuß daGfür.A Ab hier Akkorde 1x anschlagen: Wir war'n verAliebt, doch alles Ddas ist jetzt vorAbei, G Denn sie liebt Adich und darum Ggebe ich sie Dfrei. ADaß ich geweint hab, sag' ihr Fnicht, auch nicht, daß mein Herz zerDbricht, Sag nicht, daß ich's nicht erEtrag', sag ihr nur, daß ich sie Fmag.G

Interlude

Refrain (mit seltsamen Effekten; Text abgekürzt):

A G D A G D

1:-----------------------------|------------------------------| 2:-----------------------------|------------------------------| 3:------5------5------5------5-|-----5------5------5------7---| 4:---7------5------4------5----|--7------5------4-------------| 5:-----------------------------|-----------------------5------| 6:-----------------------------|------------------------------|
i.m.s.n.g-s. w.a.e. t.
    A       G      D              A       G      D
1:-----------------------------|------------------------------|
2:-----------------------------|------------------------------|
3:------5------5------5------5-|-----5------7------5------5---|
4:---7------5------4------5----|--7-------------7------7------|
5:-----------------------------|---------5--------------------|
6:-----------------------------|------------------------------|
i.m.s.n.g-s. w.a.e. t.

Bridge

*(h: x x x f7 f7 f7 e: x x x f12 f12 f12 G: x x x f12 f12 x) BIch geh' nach Hause, und dann Eschließe ich mich ein. BIch weiß, nie wieder werde Eich derselbe sein. GDoch ich bitte dich, wenn Bsie mal nach mir fragt: ESag' ihr nur, daß ich sie Gmag. A Bass

Refrain

     A       G      D              A

G D

1:-----------------------------|------------------------------| 2:-----------------------------|------------------------------| 3:------5------5------5------5-|-----5------5------5------7---| 4:---7------5------4------5----|--7------5------4------4------| 5:-----------------------------|------------------------------| 6:-----------------------------|------------------------------|
i.m.s.n.g-s. w.a.e. t. i.m.s.n.g-s. w.a.e. t. ESag' ihr nur, daß ich sie Gmag. Ab hier kommt wieder normale Begleitung mit Solo dazwischen!!
                A      G    D                    A

G

1:--------------------------5-------5---5---5---------------------------------| 2:--------------------------5-------5---5---5------17-------------------------| 3:--------------------------7b9-----7b9-7b9-7b9-------17--14----f+14----------| 4:-------------------------------------------------------------------12-10----|
5:-+0(-5 bis 0)----------------------------------0-------------------------12-|
6:----------------------------------------------------------------------------|
n.G-s.w.A.E.t.
      D                      A               G          D
1:--------------------------------------------------------------------------|
2:--------------------------------------------------------------------------|
3:----f+11-f+14-------------------------------------------------------------|
4:---------------f+16b17----------------------------------------------------|
5:-12--------------------17------------7-5---5-7-5---------+-+-+--+++++-+-+-|
6:-----------------------------------------8-------8-5----------------------|
i.m.s.n.g-s. w.a. e.t.

A G D A

1:----------------------------------------------------------------------------|
2:f+17--f+17------------------------------------------------------------------|
3:---------------14b17--14b17--14b17b14--f+14-f+14--(12)-14-14-14-14-14-14-14-|
4:----------------------------------------------------------------------------|
5:----------------------------------------------------------------------------|
6:----------------------------------------------------------------------------|
      G                            D
1:----------------------------------------------------------------15-17//5---|
2:----------------------------------------------------------15-17------------|
3:---14-14-14-14-14-14-14-14-14--12-14-14-14-14-14-14-14-14------------------|
4:---------------------------------------------------------------------------|
5:---------------------------------------------------------------------------|
6:---------------------------------------------------------------------------|