Dio - Rainbow In The Dark Chords

Main Riff
 
         
         
         
         
         
X
X
1
3
2
2 fr
         
         
         
         
         
X
4
3
1
2
1
5 fr
         
         
         
         
         
X
1
2
3
4
1
5 fr
         
         
         
         
         
X
1
4
4
4
X
7 fr
         
         
         
         
         
4
3
1
1
1
X
7 fr
         
         
         
         
         
3
2
1
1
1
4

10 fr
         
         
         
         
         
1
3
4
2
1
1
12 fr
         
         
         
         
         
X
X
1
3
4
3
5 fr
         
         
         
         
         
X
X
         
         
         
         
         
2
3
3 fr
         
         
         
         
         
X
X
2
4
1
7 fr
         
         
         
         
         
X
1
3
4
2
1
2 fr
         
         
         
         
         
X
X
1
3
4
2
3 fr
         
         
         
         
         
X
3
2
4
1
4 fr
         
         
         
         
         
X
4
3
1
2
X

12 fr
         
         
         
         
         
1
3
4
1
1
1
         
         
         
         
         
X
3
2
1
3 fr
         
         
         
         
         
X
1
2
3
4
1
8 fr
         
         
         
         
         
1
3
4
2
1
1
3 fr
         
         
         
         
         
X
1
X
3
4
1
5 fr
         
         
         
         
         
3
2
1
1
1
4
10 fr
         
         
         
         
         
X
X
1
3
4
3

12 fr
         
         
         
         
         
X
4
3
1
2
1
3 fr
         
         
         
         
         
X
7 fr
         
         
         
         
         
1
3
4
2
1
1
         
         
         
         
         
X
2
1
X
3
         
         
         
         
         
X
1
4
4
4
X
         
         
         
         
         
X
1
3
3
3
1
4 fr
         
         
         
         
         
4
3
1
1
1
X
4 fr
         
         
         
         
         
3
2
1
1
1
4

9 fr
         
         
         
         
         
X
X
1
3
4
3
11 fr
         
         
         
         
         
X
4
3
1
2
1
No chord
    
Standard guitar tuning:
E
A
D
G
B
E
Capo on 5 fret
G|--2~------- ||---------0-----------0-----0-----0-----0-----0-----|-
D|--0~------- ||------2-----------2-----0-----0-----0-----0-----0--|-
A|----------- ||---------------3-----------------------------------|-
E|----------- ||--0------------------------------------------------|- x4

D Em C Dadd11

When there's Emlightning..C Dadd11 You know, it always bring me Emdown C Dadd11 Cause it's Emfree and I Csee that it's Dadd11me Who's lost and never Emfound C Dadd11 I cry for Emmagic..C Dadd11 I feel it dancing in the Emlight C Dadd11 It was Emcold.C. Lost my Dadd11hold To the shadows of the Emnight..C Dadd11 B..There's no sign of the Cmorning coming.. B..You've been left on your Cown, like a Drainbow in the..
e|----------------------------------------------|----------------------------|-
B|------------------------3--3------------------|---------------------3~-----|-
G|------------------------2--2------0-----------|---------------------2~-----|-
D|-0h2--2--------------0--------s4-----4--2--0--|-0h2--2--------------0~-----|-
A|---------2--3--2--3---------------------------|---------2--3--2--3---------|-
E|----------------------------------------------|----------------------------|-
..dark A rainbow in the dark.. Do your Emdemons..C Dadd11 Do they ever let you Emgo C Dadd11 When you've Emtried do they Chide deep Dadd11inside Is it someone that you Emknow C Dadd11 You're a Empicture.C. Dadd11 Just an image caught in Emtime C Dadd11 We're a Emlie.C. You and Dadd11I We're words without a Emrhyme C Dadd11 B..There's no sign of the Cmorning coming.. B..You've been left on your Cown, like a Drainbow in the..
e|----------------------------------------------|----------------------------|-
B|------------------------3--3------------------|---------------------3~-----|-
G|------------------------2--2------0-----------|---------------------2~-----|-
D|-0h2--2--------------0--------s4-----4--2--0--|-0h2--2--------------0~-----|-
A|---------2--3--2--3---------------------------|---------2--3--2--3---------|-
E|----------------------------------------------|----------------------------|-
..dark A rainbow in the dark..
e|----------------------------------------------|-
B|------------------------3--3------------------|-
G|------------------------2--2------0-----------|-
D|-0h2--2--------------0--------s4-----4--2--0--|-
A|---------2--3--2--3---------------------------|-
E|----------------------------------------------|- x4
                  |G|-----0-----------|
Em.. C.. Dadd11.. |D|-s4-----4--2--0--| Em.. C.. Dadd11..
                  |G|-----0-----------|
Em.. C.. Dadd11.. |D|-s4-----4--2--0--| Em.. C.. Dadd11..

B C B C B C

e|--2~------- ||---------------------------------------------------|- B|--3~------- ||------------0--------------------------------------|-
G|--2~------- ||---------0-----------0-----0-----0-----0-----0-----|-
D|--0~------- ||------2-----------2-----0-----0-----0-----0-----0--|-
A|----------- ||---------------3-----------------------------------|-
E|----------- ||--0------------------------------------------------|- x2
When there's Emlightning..C Dadd11 You know, it always bring me Emdown C Dadd11 Cause it's Emfree and I Csee that it's Dadd11me Who's lost and never Emfound C Dadd11 Feel the Emmagic.C. Dadd11 Feel it dancing in the Emair C Dadd11 But it's Emfear.C. And you'll Dadd11hear It calling you Embeware C Dadd11 B..There's no sign of the Cmorning coming.. B..There's no sight of the Cday.. B..You've been left on your Cown, like a.. e|--2~------- ||---------------------------------------------------|- B|--3~------- ||------------0--------------------------------------|-
G|--2~------- ||---------0-----------0-----0-----0-----0-----0-----|-
D|--0~------- ||------2-----------2-----0-----0-----0-----0-----0--|-
A|----------- ||---------------3-----------------------------------|-
E|----------- ||--0------------------------------------------------|- (repeat as needed)
..rainbow (..dark) (You're) a rainbow in the..
Synth + guitar Riff
e|--------------0---------------------------------------------------|-
B|----------1---------------1-------1-------1-------1-------1-------|-
G|------2---------------2-------0-------0-------0-------0-------0---|-
D|------------------3-----------------------------------------------|-
A|--0-------0-----------------------------------2---3---2---0-------|-
E|--------------0---1---0---1---3-------------------------------3---|-