Dire Straits - News Chords

Intro Riff
 
         
         
         
         
         
2
3
3 fr
         
         
         
         
         
X
X
2
4
1
7 fr
         
         
         
         
         
X
1
3
4
2
1
2 fr
         
         
         
         
         
X
X
1
3
4
2
3 fr
         
         
         
         
         
X
3
2
4
1
4 fr
         
         
         
         
         
X
4
3
1
2
X

12 fr
         
         
         
         
         
1
3
4
1
1
1
         
         
         
         
         
X
X
1
3
2
2 fr
         
         
         
         
         
X
4
3
1
2
1
5 fr
         
         
         
         
         
X
1
2
3
4
1
5 fr
         
         
         
         
         
X
1
4
4
4
X
7 fr
         
         
         
         
         
4
3
1
1
1
X
7 fr
         
         
         
         
         
3
2
1
1
1
4

10 fr
         
         
         
         
         
1
3
4
2
1
1
12 fr
         
         
         
         
         
X
X
1
3
4
3
5 fr
         
         
         
         
         
X
X
         
         
         
         
         
X
3
2
1
3 fr
         
         
         
         
         
X
1
2
3
4
1
8 fr
         
         
         
         
         
1
3
4
2
1
1
3 fr
         
         
         
         
         
X
1
X
3
4
1
5 fr
         
         
         
         
         
3
2
1
1
1
4
10 fr
         
         
         
         
         
X
X
1
3
4
3

12 fr
         
         
         
         
         
X
4
3
1
2
1
3 fr
         
         
         
         
         
X
         
         
         
         
         
3
2
4
3 fr
         
         
         
         
         
1
3
4
2
1
1
         
         
         
         
         
2
1
3
4
3 fr
         
         
         
         
         
X
X
3
2
1
1
5 fr
         
         
         
         
         
X
X
1
3
4
3
7 fr
         
         
         
         
         
X
4
3
1
2
1

10 fr
         
         
         
         
         
X
1
2
3
4
X
10 fr
         
         
         
         
         
X
1
3
3
3
1
12 fr
         
         
         
         
         
3
2
1
1
1
4
No chord
Standard guitar tuning:
E
A
D
G
B
E
No capo
 Em  D   C   D C
Lead guitar:
|---|---------------------------------------|
|---|-8---10-8-7-7(8)-7-------7~~~7(9)------|
|---|---------------------9--------------10-|
|---|---------------------------------------|
|---|---------------------------------------|
|---|---------------------------------------|
EmHe sticks to his Dguns, he takes the Croad as it Dcomes He takes the Cshine off his shoes
EmHe says it's a Dshame, you know it Cmay be a Dgame

C

Ah but I won't play to lose -----------8-7------------------- -9---7/9-------------------7-9-7-
He's burning the grass, he takes up a glass
He swallows it neat     ---------------------------------
-9(10)~~~9---7(9)7-7(9)7-7(9)~~~- He crosses the floor, he opens the door He takes a sniff at the street

Chorus

------
BCutD he CclDimbs on his horse,C yDou kCnoDw heD fGeelsD no remorse
He just kicks it alive  ------------------------------------------
                        --------------------7(9)------7------7(9)-
                        ------10---7^10^7----------10---10-7------
                        -7/10-------------------------------------
His motor is fine, He takes it over the line
Until he's ready to dive        ----------------------

Solo

--------12-15-12-15(17)---12-15-12-15(17)-------13(15)---
-14(16)--------------------------------------------------
----12-13-15-12^13^12----12-------------------------------------------
-14-------------------14----14-12-------------------------------------
-12^15^12--------------17-19-17--------------------------------------------
------------15-------17---------20---17^20^17---10^20^17------17-20-20(22)-
-20(22)-20-17-20-17------17---19(20)-C19D----C--D--------10(12)~~~C--D----C--D----D--G----D-
He sticks to his guns, he takes the road as it comes
-15--------------17------------15---14---------------
----------------------------------7/10/12-------------------
He says it's a shame you know it may be a game
---------------------14-12-11-----------------------------11(12)~~~-
Ah but I won't play it to lose
--------------------------------12(14)----14-14-14-14-
He sticks to his guns, he takes the road as it comes
-------------------------------------14-12(14)---14-14-14-14-12----
----12-----------------14---12-14-12-14-12-14(16)-
-14----14-12---14---------------------------------
He's too fast to stop, he takes it over the top
-14(16)-14-12-14-12---11----------------------------------
He makes a line in the news...
--------5/7-------------------5/7-----------
--------5/7-------------------5/7-----------
Comments, suggestions,