The Dismemberment Plan - Time Bomb Chords

 
         
         
         
         
         
2
3
3 fr
         
         
         
         
         
X
X
2
4
1
7 fr
         
         
         
         
         
X
1
3
4
2
1
2 fr
         
         
         
         
         
X
X
1
3
4
2
3 fr
         
         
         
         
         
X
3
2
4
1
4 fr
         
         
         
         
         
X
4
3
1
2
X

12 fr
         
         
         
         
         
1
3
4
1
1
1
         
         
         
         
         
3
2
4
3 fr
         
         
         
         
         
1
3
4
2
1
1
         
         
         
         
         
2
1
3
4
3 fr
         
         
         
         
         
X
X
3
2
1
1
5 fr
         
         
         
         
         
X
X
1
3
4
3
7 fr
         
         
         
         
         
X
4
3
1
2
1

10 fr
         
         
         
         
         
X
1
2
3
4
X
10 fr
         
         
         
         
         
X
1
3
3
3
1
12 fr
         
         
         
         
         
3
2
1
1
1
4
         
         
         
         
         
X
3
2
1
3 fr
         
         
         
         
         
X
1
2
3
4
1
8 fr
         
         
         
         
         
1
3
4
2
1
1
3 fr
         
         
         
         
         
X
1
X
3
4
1
5 fr
         
         
         
         
         
3
2
1
1
1
4
10 fr
         
         
         
         
         
X
X
1
3
4
3

12 fr
         
         
         
         
         
X
4
3
1
2
1
3 fr
         
         
         
         
         
X

Gsus2

variations
         
         
         
         
         
4
X
X
         
         
         
         
         
2
1
3
4
2 fr
         
         
         
         
         
X
X
3
1
2
4
5 fr
         
         
         
         
         
X
X
1
3
4
1
7 fr
         
         
         
         
         
X
3
1
1
2
4
7 fr
         
         
         
         
         
X
2
1
1
3
4

10 fr
         
         
         
         
         
X
1
3
4
1
1
12 fr
         
         
         
         
         
4
1
1
1
X
X
         
         
         
         
         
         
         
         
         
         
X
1
3
4
2
1
7 fr
         
         
         
         
         
1
3
4
1
1
1
         
         
         
         
         
X
1
3
4
2
X
7 fr
         
         
         
         
         
X
X
3
1
1
1
9 fr
         
         
         
         
         
X
X
1
3
4
2
11 fr
         
         
         
         
         
X
4
3
1
2
X

Am/D

variations
         
         
         
         
         
X
X
5 fr
         
         
         
         
         
X
X
         
         
         
         
         
X
1
1
1
3
         
         
         
         
         
X
1
3
5 fr
         
         
         
         
         
1
3
1
2
1
1
7 fr
         
         
         
         
         
X
1
3
2
4
2 fr
         
         
         
         
         
4
3
1
1
1
2
5 fr
         
         
         
         
         
1
3
1
2
4
1

7 fr
         
         
         
         
         
X
X
1
3
2
4
10 fr
         
         
         
         
         
X
3
2
4
1
12 fr
         
         
         
         
         
X
1
3
3
3
4
         
         
         
         
         
1
3
4
2
1
1
5 fr
         
         
         
         
         
X
4
3
1
2
1
3 fr
         
         
         
         
         
X
X
1
2
4
3
         
         
         
         
         
X
X
3
2
1
1
8 fr
         
         
         
         
         
X
1
3
3
3
1
10 fr
         
         
         
         
         
4
3
1
1
1
X

10 fr
         
         
         
         
         
3
2
1
1
1
4
No chord
Standard guitar tuning:
E
A
D
G
B
E
No capo
    Em  G  C  Gsus2 Bm  Am/D  A7 F
E|-------------------------------------|
B|------------------------7-----8------|
G|------------------------7-----9------|
D|---5--5--5----5----4----5-----7------|
A|---7--5--3----0----2----7-----8------|
E|--(0)--------------------------------| Verse/Chorus: {Begin by playing the Em and accenting it with an open bottom E string for 4 measures} wellEm i, i am a tiGme bomb and Emi, i lay forgGotten at the bottom of yCour heart... i'mGsus2 fine, Bm ticking awaCy the hours to blow your world apart Instr. Breakdown:

Am/D A7 F

Am/D A7 F

Verse/Chorus Emi, i am a pGoison and Emi, i am still cGoursing through your bloodstream lCike a ghost, likeGsus2 wine, Bm gathering Cvintage for the day i hurt the most Emi, i am a lGand mine and Emi, i lay onG the soil burned out by battles you Cthought you'd won, i've gotGsus2 time...Bm to wait for the Cfootsteps.. of a memory that's on run Instr. Breakdown:

Am/D A7 F

Am/D A7 F

Chorus/Verse: well Emi, i am a Gtar pit and Emi, i swell like a liviGng thing all at the Cslightest touch.. a black Gsus2grime, Bm swallowing eCverything.. a cold and timeless clutch Emi, well i am a Gtrip wire, and Emi, i'm stretching acroGss the road you're barreling Cdown tonight...a thinish Gsus2twine, Bm waiting to Cbe released right beyond sight Alt Verse/Chorus: {this is pretty much the same, but since it sounds different here's what can be played}
E|-----------------------------------------|
B|-5-5-5-5-5-5-5-5-5-5-5-5-5-5-5-5-5-5-5-5-|
G|-0-0-0-0-0-0-0-0-0-0-0-0-0-0-0-0-0-0-0-0-|
D|-x-x-x-x-x-x-x-x-4-4-4-4-4-4-4-4-5-5-5-5-|
A|-7-7-7-7-7-7-7-7-------------------------|
E|-----------------------------------------|
i, well am fault and I a line
E|-------------------------------------------------|
B|-5-5-5-5-5-5-5-5-5-5-5-5-5-5-5-5-5-5-5-5-5-5-5-5-|
G|-0-0-0-0-0-0-0-0-0-0-0-0-0-0-0-0-0-0-0-0-0-0-0-0-|
D|-x-x-x-x-x-x-x-x-4-4-4-4-4-4-4-4-5-5-5-5-5-5-5-5-|
A|-7-7-7-7-7-7-7-7---------------------------------|
E|-------------------------------------------------|
i, i'm apart ground lay pulling the that be..
E|-------------------------------------------------|
B|-5-5-5-5-5-5-5-5-5-5-5-5-5-5-5-5-5-5-5-5-5-5-5-5-|
G|-0-0-0-0-0-0-0-0-0-0-0-0-0-0-0-0-0-0-0-0-0-0-0-0-|
D|-7-7-7-7-7-7-7-7-7-7-7-7-7-7-7-7-6-6-6-6-6-6-6-6-|
A|-7-7-7-7-7-7-7-7-7-7-7-7-7-7-7-7-7-7-7-7-7-7-7-7-|
E|-------------------------------------------------|
neath newest so fine, moving in your seed.
E|-------------------------------------------------|
B|-5-5-5-5-5-5-5-5-5-5-5-5-5-5-5-5-5-5-5-5-5-5-5-5-|
G|-0-0-0-0-0-0-0-0-0-0-0-0-0-0-0-0-0-0-0-0-0-0-0-0-|
D|-5-5-5-5-5-5-5-5-4-4-4-4-4-4-4-4-4-4-4-4-4-4-4-4-|
A|-7-7-7-7-7-7-7-7-7-7-7-7-7-7-7-7-7-7-7-7-7-7-7-7-|
E|-------------------------------------------------|
inches now, I'm crawling, cutting cleaving a I'm I'm like
E|-14---------14-14-14s~0--------------------------|
B|-14---------14-14-14s~0--------------------------|
G|-x----------x--x--x------------------------------|
D|-11---------11-11-11s~0--------------------------|
A|-------------------------------------------------|
E|-------------------------------------------------|
knife. Verse/Chorus: {palm mute} {like the beginning, play the Em for 4 measures) well Emi, i am a Gtime bomb andEm i, i only lGive in that one moment in wChich you die... its notGsus2 right, Bm its not what i Cwanted then but you know and i know there's no back Emi, i am a Glost soul and Emi, i send out a sGickened light for anyCone to see... a cry for Gsus2help, yeah, Bm a warning to Cstay away... the burning... the blinding... the reaching in darkness... Instr Breakdown:

Am/D A7 F

Am/D A7 F

Am/D A7 F

Am/D A7 F