Dog Eat Dog - Getting Live Chords

 
No chord
Standard guitar tuning:
E
A
D
G
B
E
No capo
Intro/Chorus 4x
e|------------|-------------|
B|------------|-------------|
G|8-8-7-------|-------------|
D|8-8-7-------|2-6-5--------|
A|6-6-5-------|2-6-3--------|
E|------------|0-4-3--------|

Verse

Bass
    3x
G|.|--------------------|.|-----------------|
D|.|--------------------|.|-----------------|
A|.|---1--3-4---3-1-0---|.|---6-------------|
E|.|3-----------------4-|.|3-----0--1--2--3-|

Bridge

2x
e|---------|---------|---------|---------|
B|---------|---------|---------|---------|
G|5-7-7--7-|5-7-7--7-|5-7-7--7-|5-7-7--7-|
D|5-7-7--7-|5-7-7--7-|5-7-7--7-|5-7-7--7-|
A|3-5-5--5-|3-5-5--5-|3-5-5--5-|3-5-5--5-|
E|---------|---------|---------|---------|
e|---------|---------|---------|---------|
B|---------|---------|---------|---------|
G|---------|---------|---------|---------|
D|5-7-7--7-|5-7-7--7-|5-7-7--7-|5-7-7--7-|
A|5-7-7--7-|5-7-7--7-|5-7-7--7-|5-7-7--7-|
E|3-5-5--5-|3-5-5--5-|3-5-5--5-|3-5-5--5-|
Intro/Chorus 4x

Verse

Bridge

Intro/Chorus

Bridge 2

3x
    3x
e|.|---------------|.|-----------|
B|.|---------------|.|-----------|
G|.|7--6--5-2-5--6-|.|4--3--2--5-|
D|.|7--6--5-2-5--6-|.|4--3--2--5-|
A|.|5--4--3-0-3--4-|.|2--1--0--3-|
E|.|---------------|.|-----------|

Outro

    3x
e|.|---------------|.|-----------|
B|.|---------------|.|-----------|
G|.|7--6--5-2-5--6-|.|4--3--2----|
D|.|7--6--5-2-5--6-|.|4--3--2--5-|
A|.|5--4--3-0-3--4-|.|2--1--0--5-|
E|.|---------------|.|---------3-|