Dog Eat Dog - Isms Chords

 
No chord
Standard guitar tuning:
E
A
D
G
B
E
No capo
Intro/Verse:
e|------------0-|------------0-------|----------------|----------------|
B|----------2---|----------2---5b7b5-|----------------|----------------|
G|------2-------|------2-------------|5-5-5-5-5-5-5-5-|7-7-7-7-7-7-7-7-|
D|------2-------|------2-------------|5-5-5-5-5-5-5-5-|7-7-7-7-7-7-7-7-|
A|------0-------|------0-------------|3-3-3-3-3-3-3-3-|5-5-5-5-5-5-5-5-|
E|0-3-4---------|0-3-4---------------|----------------|----------------|

Chorus

e|.|--------------|--------------|--------------|-----------|
B|.|--------------|--------------|--------------|-----------|
G|.|2--2--x-------|2--2--x-------|2--2--x-------|5---7------|
D|.|2--2--x-------|2--2--x-------|2--2--x-------|5---7---5--|
A|.|0--0--x-------|0--0--x-------|0--0--x-------|3---5---5--|
E|.|--------0-3-4-|--------0-3-4-|--------0-3-4-|--------3--|
e|--------------|--------------|--------------|-----------|.|
B|--------------|--------------|--------------|-----------|.|
G|2--2--x-------|2--2--x-------|2--2--x-------|5---7----9-|.|
D|2--2--x-------|2--2--x-------|2--2--x-------|5---7----9-|.|
A|0--0--x-------|0--0--x-------|0--0--x-------|3---5----7-|.|
E|--------0-3-4-|--------0-3-4-|--------0-3-4-|-----------|.|
e|----------------|------------|
B|----------------|------------|
G|----------------|------------|
D|5-5-5-5-5-5-5-5-|9-9-9-9-9-x-|
A|5-5-5-5-5-5-5-5-|9-9-9-9-9-x-|
E|3-3-3-3-3-3-3-3-|7-7-7-7-7-x-|

Verse

Chorus

Bridge

e|.|------------------------|------------------------|-------------------------|
B|.|------------------------|------------------------|-------------------------|
G|.|2--2--x--5--7--7-7--7---|2--2--x--9--7--7-7--7---|2--2--x--5--7--7-7--7-7--|
D|.|2--2--x--5--7--7-7--7-5-|2--2--x--9--7--7-7--7-5-|2--2--x--5--7--7-7--7-7--|
A|.|0--0--x--3--5--5-5--5-5-|0--0--x--7--5--5-5--5-5-|0--0--x--3--5--5-5--5-5--|
E|.|----------------------3-|----------------------3-|-------------------------|
1._________________
e|--------------|.|
B|--------------|.|
G|--------------|.|
D|5--5--x-5--2--|.|
A|5--5--x-5--2--|.|
E|3--3--x-3--0--|.|
2._______________
e|--------------|
B|--------------|
G|--------------|
D|5--5--x-5--9--|
A|5--5--x-5--9--|
E|3--3--x-3--7--|