Dog Fashion Disco - Desert Grave Chords

Main Riff
 
No chord
Standard guitar tuning:
E
A
D
G
B
E
No capo
Main Lick:
-----------------------------x-|
-----------------------------3-|
-----------------------------4-|
-----------------------------4-|
-------0----2----------------2-|
---2-------------------------x-|
Then:
Pre Chorus  (..Im digging you a desert grave,you won't be found by anyone..)
-------------------------x--|
-------------------------x--|
-------------------------3--|
-------------------------4--|
--2---0------------------4--|
----------2--------------2--|

Chorus

buring the sins of man...)
G, --x---|  ,  Main Riff x1
   --x---|
   --3---|
   --4---|
   --4---|
   --2---|( F#?)
Somthing close to that. Hope it helps and I hope people will build off of it. -Brandon_329