Dope - Wake Up Chords

 
No chord
    
Standard guitar tuning:
E
A
D
G
B
E
No capo
G|-6-9-6-----------9|
D|-6-9-6-----------9|
A|-4-7-4-----------7|
E|-------3-3-3-3-2--|
G|-6-9-6-9-6-------6-9-6-9-6||-6-9-6-9-6-------6-9-6-9-6-xxxxx-xx|
D|-6-9-6-9-6-------6-9-6-9-6||-6-9-6-9-6-------6-9-6-9-6-xxxxx-xx|
A|-4-7-4-7-4-------4-7-4-7-4||-4-7-4-7-4-------4-7-4-7-4-xxxxx-xx|
E|-----------3-2-0----------||-----------3-2-0-----------xxxxx-xx|