Duffy - Serious Chords

 
         
         
         
         
2
3
1
4
6 fr
         
         
         
         
X
2
1
1
4
3
7 fr
         
         
         
         
X
1
3
3
3
3
9 fr
         
         
         
         
4
3
1
1
1
1

C

variations
4 fr
         
         
         
         
X
1
2
3
4
1
         
         
         
         
X
4
3
1
2
1
4 fr
         
         
         
         
X
1
4
4
4
X
6 fr
         
         
         
         
4
3
1
1
1
X
6 fr
         
         
         
         
3
2
1
1
1
4
9 fr
         
         
         
         
1
3
4
2
1
1

11 fr
         
         
         
         
X
X
1
3
4
3
         
         
         
         
X
1
2
3
5 fr
         
         
         
         
1
3
4
2
1
1
2 fr
         
         
         
         
X
1
1
1
4
         
         
         
         
X
X
1
2
2 fr
         
         
         
         
3
2
1
1
1
4
7 fr
         
         
         
         
X
X
1
3
4
3

9 fr
         
         
         
         
X
4
3
1
2
1
12 fr
         
         
         
         
X
1
3
3
3
1

Cm

variations
4 fr
         
         
         
         
X
1
3
4
2
1
9 fr
         
         
         
         
1
3
4
1
1
1
         
         
         
         
X
4
2
1
X
X
         
         
         
         
X
4
3
1
2
X
4 fr
         
         
         
         
X
1
X
X
2
1
11 fr
         
         
         
         
X
X
1
3
4
2

4 fr
         
         
         
         
X
X
         
         
         
         
X
X
1
3
2
2 fr
         
         
         
         
X
4
3
1
2
1
5 fr
         
         
         
         
X
1
2
3
4
1
5 fr
         
         
         
         
X
1
4
4
4
X
7 fr
         
         
         
         
4
3
1
1
1
X
7 fr
         
         
         
         
3
2
1
1
1
4

10 fr
         
         
         
         
1
3
4
2
1
1
12 fr
         
         
         
         
X
X
1
3
4
3
5 fr
         
         
         
         
X
X

Bm7

variations
         
         
         
         
X
1
3
1
2
1
6 fr
         
         
         
         
1
3
1
1
1
1
         
         
         
         
X
1
X
2
4
3
         
         
         
         
X
1
3
1
2
4
6 fr
         
         
         
         
1
X
1
1
1
X
6 fr
         
         
         
         
1
3
1
1
4
1

8 fr
         
         
         
         
X
X
1
3
2
2
11 fr
         
         
         
         
X
2
1
3
1
4
         
         
         
         
X
1
3
1
2
1
7 fr
         
         
         
         
1
3
1
1
1
1
         
         
         
         
X
1
X
2
4
3
         
         
         
         
X
1
2
3
7 fr
         
         
         
         
1
X
1
1
1
X
2 fr
         
         
         
         
X
1
3
1
2
4

7 fr
         
         
         
         
1
3
1
1
4
1
9 fr
         
         
         
         
X
X
1
3
2
2
12 fr
         
         
         
         
X
2
1
3
1
4
         
         
         
         
X

C7

variations
4 fr
         
         
         
         
X
1
3
1
4
1
9 fr
         
         
         
         
1
3
1
2
1
1
4 fr
         
         
         
         
X
1
X
1
4
1
4 fr
         
         
         
         
X
1
3
3
3
4
6 fr
         
         
         
         
4
3
1
1
1
2
9 fr
         
         
         
         
1
3
1
2
X
1

9 fr
         
         
         
         
1
3
1
2
4
1
11 fr
         
         
         
         
X
X
1
3
2
4
         
         
         
         
X
No chord
Standard guitar tuning:
E
A
D
G
B
E
No capo
 Chords:

E6 C A Cm D Bm7 Bm7 E6 C7 D

e:---9----4--- ---5----4---(7)-- ---6-----7----9----9--------: B:---9----6--- ---5----5----7--- ---6-----7----9----9----7---: G:---9----6--- ---6----6----7--- ---6-----7----9---10----7---: D:---9----6--- ---7----6----7--- ---6-----7----9----9----7---: A:---7----4--- ---7----4----5--- ---8-----9----7---11----5---: E:------------ ---5------------- ---6-----7---------9--------:
*the top note in bracket 'B' is sometimes strummed, which makes this chord a D6.

Intro

2/4

Break

E6 C E6 C

Pre-Verse:

A Cm D A

Verse

||: A | Cm | D | A :|| 4x (shortly hit the Bm7 after the last A)

Pre-chorus

Bm7 E6 C7 D

Chorus

A Cm D A

Verse Pre-Chorus 2x Chorus ½ Verse Pre-Chorus + | D | 2x Chorus

Guitar solo outro

||: A | Cm | D | A :||, repeat till fade out

ending guitar solo

|-------------------------|-----------------------|
|-------------------------|-----------------------|
|-------------------------|-9-11-11-11b13r11-9----|
|-----------------7-9-/11-|-----------------------|
|--------7h9--7h9---------|-----------------------|
|---8h9-------------------|-----------------------|
|----------------------------|---------14p13p12----12----------------|
|---10h12--12-12b14-10----10-|---/14------------14----14p13p12----12-|
|----------------------11----|---------------------------------14----|
|----------------------------|---------------------------------------|
|----------------------------|---------------------------------------|
|----------------------------|---------------------------------------|
|-------------------|---------------------|
|------/14-------12-|b13r12---14~~\-------|
|-14~---------14----|-------------------7-|
|-------------------|---------------7h9---|
|-------------------|---------------------|
|-------------------|---------------------|
|----------------7--/8-|-9~--------9--7--7-|
|----------------------|-------------------|
|-------5b6--6/7---7/8-|-9~----7/9----7--7-|
|---7h9----------------|-------------------|
|----------------------|-------------------|
|----------------------|-------------------|
|-5------5----5------------|----------------9--------|
|-----5--------------5-7b8-|r7-5-5~---10b12----------|
|---6------6-----5h6-------|--------------------9h11-|
|--------------------------|-------------------------|
|--------------------------|-------------------------|
|--------------------------|-------------------------|
|----------------------------------|-----------------------------------:
|-10-12-12p10----10-12b14b15-10-12-|b14r12--10----10-------------------:
|-------------11-------------------|-----------11----11/9--------------:
|----------------------------------|----------------------11p10p9----9-:
|----------------------------------|------------------------------12---:
|----------------------------------|-----------------------------------:
LYRICS [I always wanted to see The colours in your destiny I always wanted to know If our love will grow] Serious Serious I'm a trophy on your arm You wear me like a charm, yes you do An accessory that suits Your new suede boots, oh I get a feeling deep down inside Something just ain't right I get a feeling that tells me I know Baby you never show How you really feel for me Tell me, can we ever be Serious? Serious in love? A joke on my expense In front of all your friends all the time A game you like to play Leaves me solo every day I get a feeling deep down inside Something just aint right I get a feeling that tells me I know Baby you never show How you really feel for me Tell me, can we ever be Serious? Serious in love? Serious? Serious in Love?