Edward Sharpe And The Magnetic Zeros - Come In Please Chords

 
         
         
         
         
         
3
2
4
3 fr
         
         
         
         
         
1
3
4
2
1
1
         
         
         
         
         
2
1
3
4
3 fr
         
         
         
         
         
X
X
3
2
1
1
5 fr
         
         
         
         
         
X
X
1
3
4
3
7 fr
         
         
         
         
         
X
4
3
1
2
1

10 fr
         
         
         
         
         
X
1
2
3
4
X
10 fr
         
         
         
         
         
X
1
3
3
3
1
12 fr
         
         
         
         
         
3
2
1
1
1
4

B

variations
         
         
         
         
         
X
1
2
3
4
1
6 fr
         
         
         
         
         
1
3
4
2
1
1
         
         
         
         
         
X
1
4
4
4
X
         
         
         
         
         
X
1
X
3
4
1
3 fr
         
         
         
         
         
3
2
1
1
1
4
8 fr
         
         
         
         
         
X
X
1
3
4
3

10 fr
         
         
         
         
         
X
4
3
1
2
1
         
         
         
         
         
X
3
2
1
3 fr
         
         
         
         
         
X
1
2
3
4
1
8 fr
         
         
         
         
         
1
3
4
2
1
1
3 fr
         
         
         
         
         
X
1
X
3
4
1
5 fr
         
         
         
         
         
3
2
1
1
1
4
10 fr
         
         
         
         
         
X
X
1
3
4
3

12 fr
         
         
         
         
         
X
4
3
1
2
1
3 fr
         
         
         
         
         
X
         
         
         
         
         
1
3
4
2
1
1
5 fr
         
         
         
         
         
X
4
3
1
2
1
3 fr
         
         
         
         
         
X
X
1
2
4
3
         
         
         
         
         
X
X
3
2
1
1
8 fr
         
         
         
         
         
X
1
3
3
3
1
10 fr
         
         
         
         
         
4
3
1
1
1
X

10 fr
         
         
         
         
         
3
2
1
1
1
4
3 fr
         
         
         
         
         
X
1
3
4
2
1
8 fr
         
         
         
         
         
1
3
4
1
1
1
         
         
         
         
         
X
3
1
X
X
         
         
         
         
         
X
4
1
2
X
8 fr
         
         
         
         
         
X
X
3
1
1
1
10 fr
         
         
         
         
         
X
X
1
3
4
2

12 fr
         
         
         
         
         
X
4
3
1
2
X

Bsus4

variations
         
         
         
         
         
X
1
3
3
4
1
6 fr
         
         
         
         
         
1
3
3
3
1
1
8 fr
         
         
         
         
         
X
X
1
3
4
4
10 fr
         
         
         
         
         
X
3
4
1
2
X
No chord
Standard guitar tuning:
E
A
D
G
B
E
No capo

Intro

  G          B        C        G

B C G

E---------------------------------------------------------------------| B-3------3---6-----6---8-----6--3------3---6-----6---8-----6--3-----3-| G---0----------0---------0--------0----------0---------0--------0-----| D---------------------------------------------------------------------| A---------------------------------------------------------------------| E-3---3------6---6-----8---8----3---3------6---6-----8---8----3---3---|
  B        C                 G        B

C G

E--------------------------------------------------------------------| B-6-----6---8-----8--8-----6--3-----3--6-----6---8-----6--3------3---| G---0----------0-------0--------0--------0---------0--------0--------| D--------------------------------------------------------------------| A--------------------------------------------------------------------| E-6---6-----8---8----8---8----3---3----6---6-----8---8----3---3------|
  G
E--------------------------------------------------------------------|
B-3-----3---3------3---3------3--------------------------------------|
G---0----------0---------0-------------------------------------------|
D--------------------------------------------------------------------|
A--------------------------------------------------------------------|
E-3---3-----3----3-----3----3----------------------------------------|
G Once upon a tiBme I was the hCurricane bGoy There wBas no eye in mCe for you to hGide B Head lowC don't show oceans in my eGyes As the Bwaves clap goodbyCe to sorrow G GDaddy's on the moFuntain yellin' Cat the bloody sky GMama's in the mFirror actin oCut another life GChildren in the schFoolyard singin' 'Ceverybody dCmies' And GI am on the cBorner with a sCentimental eyGe GI am on the cBorner singin sCentimental lGies. G Hopped up on a gBypsy train with trCacks that you can hGide That wBay no storm could fCollow our tomorrGows ButB Shackled to a suiCtcase full of automatic thGunder CLAP! B All hail to deCath's boy-wonder G GJJ's in the kFitchen talking Cbout the end of times GMo's thowin KFerouac to CCatch Her In the Rye GTempermental yFogis bakin mCerryweather pCmie And GI am on the cBorner with a sCentimental Geye GI am on the cBorner singin' sCentimental lGies

C

SGometimes said it's sFuntime Let it sCunshine on myB mind
11-10-8-6-10-6------------------------------|
---------------5-----------1-------1--------|
-----------------7-3---0h2----2----0h2------|
--------------------------------------------|
--------------------------------------------|
--------------------------------------------|
All the same its conscience waiting Cross the line Last night I dreamed myself upon a golden glade The clouds passed in and out of my reflection And everyone I've known held my hands till they were clay And the storm finally bled from my complexion Now Jadey's on the mountain singing 'We will never die' The band is in the rainbow playin love for you and I Heath is riding shotgun aimin at the paper sky And I am only 'I am' now I've opened up my eye I am only 'I am' that I've opened up my eye SCometimes said its suntime Let it sunshine on my mind Healing I need healing A good feeling I can Shine Feel it like you can see it Like you can dream it in your mind Sunny Hallelujah comin to ya Rain or shine I'm just saying its Conscience waiting Cross the line
E-------------------------------------------------------------------------|
B-0-----0--0-----0-3-----3--3------3--1------1--1-----1--4-----4--4-----4-|
G---0--------0-------0---------0----------0-------0--------0--------0-----|
D-------------------------------------------------------------------------|
A-2---2----2---2----------------------------------------------------------|
E------------------3---3----3----3----1----1----1---1----1---1----1---1---|
E----------------------------------------------------------------------------|
B-3------3---3------3--3-----3--3-----3--1-----1--1-----1--4-----4---6-----4-|
G---0----------0---------0--------0--------0--------0--------0---------0-----|
D----------------------------------------------------------------------------|
A----------------------------------------3---3----3---3----1---1-----3---3---|
E-3---3------3---3-----1---1----1---1----------------------------------------|
E----------------------------------------------------------------------------|
B-3------3---3------3--3-----3--3-----3--1-----1--1-----1--4-----4---4-----4-|
G---0----------0---------0--------0--------0--------0--------0---------0-----|
D----------------------------------------------------------------------------|
A----------------------------------------3---3----3---3----1---1-----1---1---|
E-3---3------3---3-----1---1----1---1----------------------------------------|

And

Cross the line Cross the line GCross the line Cross the lFine Cross the lCine Cross the lBsus4ine x6 Uuuh uuuh ! Uuuh uuuh ! Uuuh uuuh ! Cross the line ! X2 All the same its conscience waiting