Eels - Prizefighter Chords

 
         
         
         
         
X
1
2
3
5 fr
         
         
         
         
1
3
4
2
1
1
2 fr
         
         
         
         
X
1
1
1
4
         
         
         
         
X
X
1
2
2 fr
         
         
         
         
3
2
1
1
1
4
7 fr
         
         
         
         
X
X
1
3
4
3

9 fr
         
         
         
         
X
4
3
1
2
1
12 fr
         
         
         
         
X
1
3
3
3
1
No chord
Standard guitar tuning:
E
A
D
G
B
E
Capo on 2 fret

A A

e|-----------------|---0-0-0--0-0-0---0-0-0--0-0-0---------|
B|----2^-----------|---2-3-2--2-2-2---3-3-2--2-2-2---------|
G|----2^----Ooohh--|---2-2-2--2-2-2---2-2-2--2-2-2---------|
D|----2^-----------|---2-2-2--2-2-2---2-2-2--2-2-2----...--|
A|--0--------------|---------------------------------------|
E|-----------------|---------------------------------------|
(NOTE: I've been reported that E switches from A to D live (instead of xx2230, both sound good though)
"I'll break through..."
     D
e|---2-2--2h3-3-3-2---2-2--2h3-3-3-2---------|
B|---3-3--3---3-3-3---3-3--3---3-3-3---------|
G|---2-2--2---2-2-2---2-2--2---2-2-2---------|
D|---0-0--0---0-0-0---0-0--0---0-0-0----...--|
A|-------------------------------------------|
E|-------------------------------------------|

Solo

With help from J. Denney)
e|-----------------------------------|
B|-----------------------------------|
G|-----------------------------------|
D|-----------------------------------|
A|-----------------------------------|
E|----0--5-5\8--055---0--5-5\8---5---|
e|------------------------------------------------------------------|
B|------------------------------------------------------------------|
G|------------------------------------------------------------------|
D|------------------------------------------------------------------|
A|---------------------------------------------------------7--------|
E|---8b-8b-55-75-8b-8b-55------8b-8b-55-75-8b-8b-5-3-5-------7-5----|
e|----------------------------------------------5~-------------|
B|--------------------------55-55--5-5\b7-7-5-7-5~-------------|
G|--------------------55-55-55-55--5-5\b7-7-5-7----------------|
D|---55-55-55-55-55-5/77-77------------------------------------|
A|-------------------------------------------------------------|
E|-------------------------------------------------------------|