Ellie Goulding - Too Much Love Chords

 
         
         
         
         
         
X
1
1
1
3
         
         
         
         
         
X
1
3
5 fr
         
         
         
         
         
1
3
1
2
1
1
7 fr
         
         
         
         
         
X
1
3
2
4
2 fr
         
         
         
         
         
4
3
1
1
1
2
5 fr
         
         
         
         
         
1
3
1
2
4
1

7 fr
         
         
         
         
         
X
X
1
3
2
4
10 fr
         
         
         
         
         
X
3
2
4
1
12 fr
         
         
         
         
         
X
1
3
3
3
4
         
         
         
         
         
2
3
1
4
         
         
         
         
         
2
1
         
         
         
         
         
X
X
1
3
2
4
7 fr
         
         
         
         
         
X
1
3
1
4
1
         
         
         
         
         
2
1
4
7 fr
         
         
         
         
         
X
1
3
3
3
4

9 fr
         
         
         
         
         
4
3
1
1
1
2
12 fr
         
         
         
         
         
1
3
1
2
4
1
         
         
         
         
         
X
2
1
3
4
         
         
         
         
         
X
1
3
1
4
1
7 fr
         
         
         
         
         
1
3
1
2
1
1
7 fr
         
         
         
         
         
1
X
2
4
3
X
2 fr
         
         
         
         
         
X
1
3
3
3
4
4 fr
         
         
         
         
         
4
3
1
1
1
2

7 fr
         
         
         
         
         
1
3
1
2
X
1
7 fr
         
         
         
         
         
1
3
1
2
4
1
9 fr
         
         
         
         
         
X
X
1
3
2
4
         
         
         
         
         
X
1
2
3
5 fr
         
         
         
         
         
1
3
4
2
1
1
2 fr
         
         
         
         
         
X
1
1
1
4
         
         
         
         
         
X
X
1
2
2 fr
         
         
         
         
         
3
2
1
1
1
4
7 fr
         
         
         
         
         
X
X
1
3
4
3

9 fr
         
         
         
         
         
X
4
3
1
2
1
12 fr
         
         
         
         
         
X
1
3
3
3
1

Cm

variations
4 fr
         
         
         
         
         
X
1
3
4
2
1
9 fr
         
         
         
         
         
1
3
4
1
1
1
         
         
         
         
         
X
4
2
1
X
X
         
         
         
         
         
X
4
3
1
2
X
4 fr
         
         
         
         
         
X
1
X
X
2
1
11 fr
         
         
         
         
         
X
X
1
3
4
2

4 fr
         
         
         
         
         
X
X
7 fr
         
         
         
         
         
1
3
4
2
1
1
         
         
         
         
         
X
2
1
X
3
         
         
         
         
         
X
1
4
4
4
X
         
         
         
         
         
X
1
3
3
3
1
4 fr
         
         
         
         
         
4
3
1
1
1
X
4 fr
         
         
         
         
         
3
2
1
1
1
4

9 fr
         
         
         
         
         
X
X
1
3
4
3
11 fr
         
         
         
         
         
X
4
3
1
2
1

B

variations
         
         
         
         
         
X
1
2
3
4
1
6 fr
         
         
         
         
         
1
3
4
2
1
1
         
         
         
         
         
X
1
4
4
4
X
         
         
         
         
         
X
1
X
3
4
1
3 fr
         
         
         
         
         
3
2
1
1
1
4
8 fr
         
         
         
         
         
X
X
1
3
4
3

10 fr
         
         
         
         
         
X
4
3
1
2
1
No chord
Standard guitar tuning:
E
A
D
G
B
E
No capo
Chords
A7 e|-----------------------------------|
   B|--2--------------------------------|
   G|-----------------------------------|
   D|--2--------------------------------|
   A|-----------------------------------|
   E|-----------------------------------|
E7 e|-----------------------------------|
   B|-----------------------------------|
   G|--1--------------------------------|
   D|-----------------------------------|
   A|--2--------------------------------|
   E|-----------------------------------|
B7 e|--2--------------------------------|
   B|-----------------------------------|
   G|--2--------------------------------|
   D|--1--------------------------------|
   A|--2--------------------------------|
   E|-----------------------------------|
A e|-----------------------------------|
  B|--2--------------------------------|
  G|--2--------------------------------|
  D|--2--------------------------------|
  A|-----------------------------------|
  E|-----------------------------------|
C#m e|--4--------------------------------|
    B|--5--------------------------------|
    G|--6--------------------------------|
    D|--6--------------------------------|
    A|--4--------------------------------|
    E|--4--------------------------------|
B  e|--2---------------------------------|
   B|--4---------------------------------|
   G|--4---------------------------------|
   D|--4---------------------------------|
   A|--2---------------------------------|
   E|--2---------------------------------|
Bb e|--1---------------------------------|
   B|--3---------------------------------|
   G|--3---------------------------------|
   D|--3---------------------------------|
   A|--1---------------------------------|
   E|--1---------------------------------|
The intro

A7 E7

e|-------------------------------------| B|----2-----2-2-2-2----0---0-0-0-0-----| G|----0-----0-0-0-0----1---1-1-1-1-----| X2 D|----2-----2-2-2-2----0---0-0-0-0-----| A|-0------0----------2----2------------| E|-------------------------------------|

Verse

     A7                 E7
   e|-------------------------------------|
   B|----2-----2-2-2-2----0---0-0-0-0-----|
   G|----0-----0-0-0-0----1---1-1-1-1-----|  X4
   D|----2-----2-2-2-2----0---0-0-0-0-----|
   A|-0------0----------2----2------------|
   E|-------------------------------------|

Bridge

   e|--2--2-2-2-2--2-2-2-2--2-2-2-2-2--2--|
   B|-------------------------------------|
   G|--2--2-2-2-2--2-2-2-2--2-2-2-2-2-2---|
   D|--1--1-1-1-1--1-1-1-1--1-1-1-1-1-1---|
   A|--2--2-2-2-2--2-2-2-2--2-2-2-2-2-2---|
   E|-------------------------------------|
The pattern for the verse and chorus are the same but listen to the strumming on the track to get it right. Also listen to the strumming on the bridge too so it matches the tab. The whole of the chorus is strummed so you'll just have to listen to get it the same as the track.

Verse

A7Where's that diamond ring you promised? E7My fingers looking bare A7Where's that valentine, be honest, E7The postman didn't bring it here A7The thing I wasn't looking for E7I found in your bedroom drawer A7The letter that you loved her better, E7Made me want you even,

Bridge

B7more

Chorus

Because Atoo much love's not Cmgood for you Your Aheart can get too Cmfull And Atoo much love's an CmIOU BIf I give you that, you'll BPay me Bback with the A7blues.

A7 E7 x2

Ooohhhh, yeah A7Where is all that time you promised? E7The first hand's on the three A7Where's the second hand, I'm bothered E7To see it stroking on her knee A7The thing I wasn't looking for E7I found in your bedroom drawer A7The letter that you loved her better, E7Made me want you even,

Bridge

B7more

Chorus

Because Atoo much love's not Cmgood for you Your Aheart can get too Cmfull And Atoo much love's an CmIOU BIf I give you that, you'll BPay me Bback with the A7blues. A7Woah oh oh oh oh, E7yeah, yeah, yeah yeah, yeaaaah, A7Hoo oh oh oh oh oh E7 A7Woah oh oh oh oh, E7yeah, yeah, yeah yeah, yeaaaah, A7Hoo oh oh oh oh oh E7

Chorus

Because Atoo much love's not Cmgood for you Your Aheart can get too Cmfull And Atoo much love's an CmIOU BIf I give you that, you'll BPay me Bback with the A7blues. E7