Elliott Smith - Roman Candle Chords

Main Riff
 
No chord
Standard guitar tuning:
E
A
D
G
B
E
No capo

Intro

D|---2--------|
B|---3--------|
G|---4--------|
D|---4--------|
A|---2--------|
D|------------|

Verse

e|-4--4--0--0------------0-------------------------------------|
B|-3--6--3--2(h3)--------3-------------------------------------|
G|-x--4--0--0------------0-------------------------------------|
D|-4--6--5--2----then----2-------------------------------------|
A|-2--4--x--0------------x-------------------------------------|
D|-------5---------------2-------------------------------------|

Chorus

e|----0----0-----0--------0------------------------------------|
B|----3----3-----3--------3------------------------------------|
G|----4----4-----4--------0------------------------------------|
D|----4----4-----4--then--5------------------------------------|
A|-2----------------------x------------------------------------|
D|-------0----2-----------5------------------------------------|

Outro

e|---0---0---0---0-------------0---(0)---0---------------------|
B|---3---3---3---3-------------3---(0)---1---------------------|
G|---2---0---0---0-------------2---(0)---0---------------------|
D|---0--(0)--5---2-----end on--0---------2---------------------|
A|---0---3---x---x-------------0---------3---------------------|
D|---0---x---5---2-------------0---------x---------------------|