Emil Bulls - Cocoon Acoustic Chords

 

Cm

variations
4 fr
         
         
         
         
         
X
1
3
4
2
1
9 fr
         
         
         
         
         
1
3
4
1
1
1
         
         
         
         
         
X
4
2
1
X
X
         
         
         
         
         
X
4
3
1
2
X
4 fr
         
         
         
         
         
X
1
X
X
2
1
11 fr
         
         
         
         
         
X
X
1
3
4
2

4 fr
         
         
         
         
         
X
X
         
         
         
         
         
X
1
2
3
5 fr
         
         
         
         
         
1
3
4
2
1
1
2 fr
         
         
         
         
         
X
1
1
1
4
         
         
         
         
         
X
X
1
2
2 fr
         
         
         
         
         
3
2
1
1
1
4
7 fr
         
         
         
         
         
X
X
1
3
4
3

9 fr
         
         
         
         
         
X
4
3
1
2
1
12 fr
         
         
         
         
         
X
1
3
3
3
1
7 fr
         
         
         
         
         
1
3
4
2
1
1
         
         
         
         
         
X
2
1
X
3
         
         
         
         
         
X
1
4
4
4
X
         
         
         
         
         
X
1
3
3
3
1
4 fr
         
         
         
         
         
4
3
1
1
1
X
4 fr
         
         
         
         
         
3
2
1
1
1
4

9 fr
         
         
         
         
         
X
X
1
3
4
3
11 fr
         
         
         
         
         
X
4
3
1
2
1

Fm

variations
         
         
         
         
         
1
3
4
1
1
1
4 fr
         
         
         
         
         
X
X
1
3
4
2
         
         
         
         
         
X
X
3
1
1
1
9 fr
         
         
         
         
         
X
1
3
4
2
1
6 fr
         
         
         
         
         
X
4
3
1
2
X
         
         
         
         
         
X
X
1
3
2
2 fr
         
         
         
         
         
X
4
3
1
2
1
5 fr
         
         
         
         
         
X
1
2
3
4
1
5 fr
         
         
         
         
         
X
1
4
4
4
X
7 fr
         
         
         
         
         
4
3
1
1
1
X
7 fr
         
         
         
         
         
3
2
1
1
1
4

10 fr
         
         
         
         
         
1
3
4
2
1
1
12 fr
         
         
         
         
         
X
X
1
3
4
3
5 fr
         
         
         
         
         
X
X
No chord
    
Standard guitar tuning:
E
A
D
G
B
E
No capo
Chords:

Cm A B Fm

E----4-----5-----7-----2-------| B----5-----5-----7-----2-------| G----6-----6-----8-----2-------| D----6-----7-----9-----4-------| A----4-----7-----9-----4-------| E----------5-----7-----2-------|
Also das lied ist ziemlich simpel gehalten, nur der bridge/ das outro fordert ein wenig :D Der verse besteht nur aus einem Riff bzw einem Akkord, also schreibe ich den Akkord nur einmal am Anfang an und tabbe den Riff :D Oh ja und dieser tab ist auf nachfrage getabbt, falls also nachfrage nach mehr besteht, bitte mir an die oben genannte email schreiben :D Ein dank kann man mir auch schreiben ;D Nun ja kommen wir zum erssenziellen.
Riff im Verse               in der 3. Zeile des verses:
E---------4-------7----------------4------4-------7-------------|
B-------5---5~------5------------5---5------5---5---5-----------|
G---4h6---------------6------4h6-------6------6-------6---------|
D---------------------------------------------------------------|
A---------------------------------------------------------------|
E---------------------------------------------------------------|
Cmhere all our wounds caDn heal scars and blisters disappear we`re safe just as long as we stay Bin Athis coFmcoon BI melt aCmway with Ayou oh Byeah in Cmthis cocoon no Aone Fmcan disBturCmb our Adreams our eBternal Cmsleep Cmoh here love takes root and it grows adrenaline and dopamine begin to flow we`re one just as long as we stay Bin Athis coFmcoon BI melt aCmway with Ayou oh Byeah in Cmthis cocoon no Aone Fmcan disBturCmb our Adreams our eBternal Cmsleep Ab hier gibt’s n tab :D

Interlude

E----------------------------------------------------------------------|
B----------------------------------------------------------------------|
G-------6---6---------6---6---------6---6--6-6b7-7r6-------6---6-------|
D----------------------------------------------------------------------|
A---2h4---4-------2h4---2-------2h4---2----------------2h4---4---------|
E----------------------------------------------------------------------|

Interlude 2

E-----------------------------------------------------|
B-----------------------------------------------------|
G---6---4---7---6-6-7----6---4---7---6-6-7------------|
D-----------------------------------------------------|
A---4---2---5---4-4-5----4---2---5---4-4-5------------|
E-----------------------------------------------------|
E--------------------------------------------------------|
B--------------------------------------------------------|
G---6---4---7---6-6-7----6---4---7---6-6-7--6-6-7--------|
D--------------------------------------------------------|
A---4---2---5---4-4-5----4---2---5---4-4-5--4-4-5--------|
E--------------------------------------------------------|

Solo

 Ein  Gi
E---------------------------------------------------------------|
B---------------------------------------------------------------|
G-----------4h6-6b7-(6b)7r6--4----6h7-(6b)7r6--4-------4-4------|
D-------4h6----------------------------------------4h6----------|
A---4h7---------------------------------------------------------|
E---------------------------------------------------------------|
E--------------------------------------------------------|
B--------------------------------------------------------|
G-----------4h6-6b7-(6b)7r6--4------4-4------------------|
D-------4h6---------------------6b7------6b7r6--4-4------|
A---4h7--------------------------------------------------|
E--------------------------------------------------------|
E------------------------------------------------------------|
B------------------------------------------------------------|
G-----------4h6-6b7-(6b)7r6--4-------------------------------|
D-------4h6---------------------6b7-(6b)7r6--4--4-6-4--------|
A---4h7-----------------------------------------------7------|
E------------------------------------------------------------|
E---------------------------------------------------------------------|
B---------------------------------------------------------------------|
G-----------4h6-------------------------------------------------------|
D-------4h6------6b7-(6b)7r6--4---6b7-(6b)7r6--4---6b7-(6b)7r6-4------|
A---4h7----------------------------------------------------------7----|
E---------------------------------------------------------------------|
Bin Athis coFmcoon BI melt aCmway with Ayou oh Byeah in Cmthis cocoon no Aone Fmcan disBturCmb our Adreams our eBternal Cmsleep Bin Athis coFmcoon BI melt aCmway with Ayou oh Byeah in Cmthis cocoon no Aone Fmcan disBturCmb our Adreams our eBternal Cmsleep und das wars auch schon... dauerte auch nur ne stunde... Bitte bewerten, kommentieren und mich gerne verbessern ;D Cheers...