Emil Bulls - These Are The Days Chords

 

Cm

variations
4 fr
         
         
         
         
         
X
1
3
4
2
1
9 fr
         
         
         
         
         
1
3
4
1
1
1
         
         
         
         
         
X
4
2
1
X
X
         
         
         
         
         
X
4
3
1
2
X
4 fr
         
         
         
         
         
X
1
X
X
2
1
11 fr
         
         
         
         
         
X
X
1
3
4
2

4 fr
         
         
         
         
         
X
X
         
         
         
         
         
X
1
2
3
5 fr
         
         
         
         
         
1
3
4
2
1
1
2 fr
         
         
         
         
         
X
1
1
1
4
         
         
         
         
         
X
X
1
2
2 fr
         
         
         
         
         
3
2
1
1
1
4
7 fr
         
         
         
         
         
X
X
1
3
4
3

9 fr
         
         
         
         
         
X
4
3
1
2
1
12 fr
         
         
         
         
         
X
1
3
3
3
1
7 fr
         
         
         
         
         
1
3
4
2
1
1
         
         
         
         
         
X
2
1
X
3
         
         
         
         
         
X
1
4
4
4
X
         
         
         
         
         
X
1
3
3
3
1
4 fr
         
         
         
         
         
4
3
1
1
1
X
4 fr
         
         
         
         
         
3
2
1
1
1
4

9 fr
         
         
         
         
         
X
X
1
3
4
3
11 fr
         
         
         
         
         
X
4
3
1
2
1

Am

variations
4 fr
         
         
         
         
         
1
3
4
1
1
1
6 fr
         
         
         
         
         
X
X
1
3
4
2
4 fr
         
         
         
         
         
X
X
3
1
1
1
         
         
         
         
         
4
2
1
X
X
X
8 fr
         
         
         
         
         
X
4
3
1
2
X
11 fr
         
         
         
         
         
X
1
3
4
2
1
         
         
         
         
         
2
3
1
4 fr
         
         
         
         
         
X
4
3
1
2
1
7 fr
         
         
         
         
         
X
1
4
4
4
X
2 fr
         
         
         
         
         
X
X
1
2
4
3
4 fr
         
         
         
         
         
4
3
1
2
1
7 fr
         
         
         
         
         
X
1
3
3
3
1

9 fr
         
         
         
         
         
4
3
1
1
1
X
9 fr
         
         
         
         
         
3
2
1
1
1
4
12 fr
         
         
         
         
         
1
3
4
2
1
1
4 fr
         
         
         
         
         
X

Fm

variations
         
         
         
         
         
1
3
4
1
1
1
4 fr
         
         
         
         
         
X
X
1
3
4
2
         
         
         
         
         
X
X
3
1
1
1
9 fr
         
         
         
         
         
X
1
3
4
2
1
6 fr
         
         
         
         
         
X
4
3
1
2
X
No chord
Standard guitar tuning:
E
A
D
G
B
E
No capo
Chords:

Cm A B Am E Fm

E----4-----5-----7-----4-----0-----2---| B----5-----5-----7-----4-----0-----2---| G----6-----6-----8-----4-----1-----2---| D----6-----7-----9-----6-----2-----4---| A----4-----7-----9-----6-----2-----4---| E----------5-----7-----4-----0-----2---|
Wiedermal ein tab auf nachfrage... Falls also immernoch nachfrage besteht, schreib mir bitte an die oben angegebene email addresse ;D Yep. Ach ja und im verse gibt’s nur einen akkord, also schreib ich ihn nur einmal hin und tab den D Viel Spaß

Verse riff

E--------------------------------------------------|
B----------------5---------------------------------|
G--------------6-----------------------------------|
D-------2—-4/6-------------------------------------|
A---2/4--------------------------------------------|
E--------------------------------------------------|

Pre-chorus riff

E---12-x16---7-x8---7-x8-----12-x8---7-x8---12-x8---7-x8-------|
B---14-------9------7--------14------9------14------9----------|
G--------------------------------------------------------------|
D-------—------------------------------------------------------|
A--------------------------------------------------------------|
E--------------------------------------------------------------|

Interlude riff

E-------------------------------------------------|
B-------------------------------------------------|
G---6--------8--------9-------11------13----------|
D---x-x16----x—x16----x-x8----x--x8---x--x16------|
A---4--------6--------7-------9-------11----------|
E-------------------------------------------------|
E---------------------------------------------------------------|
B-------------{-}-<..-x15---------------------------------------|
G---6--------4-6--------5-------8-------9-------8-------6-------|
D---x-x16----x—x-x15----x-x8----x-x8----x-x8----x-x8----x-------|
A---4--------2-4--------3-------6-------7-------6-------4-------|
E---------------------------------------------------------------|
Riff im letzten Verse:
1. Gitarre:
E---12-x16---7-x8---7-x8-----12-x8---7-x8---12-x8---7-x8-------|
B---14-------9------7--------14------9------14------9----------|
G--------------------------------------------------------------|
D-------—------------------------------------------------------|
A--------------------------------------------------------------|
E--------------------------------------------------------------|
2. Gitarre:
E-------4-----4-----------2-----2-----------0-----0-----------0-----0------|
B-----5---5-----5-------4---4-----4-------2---2-----2-------2---2-----2----|
G---6-------6---------4-------4---------2-------2---------2-------2--------|
D-------—------------------------------------------------------------------|
A--------------------------------------------------------------------------|
E--------------------------------------------------------------------------|

Outro riff

E----------------------------------------------------------------------|
B----------------------------------------------------------------------|
G---13-13-13-13-13--13-13-13-13-13--13-13-13-13-13--13-13-13-13-13-----|
D---x--x--x—-x--x---x--x--x--x--x---x--x--x--x--x---x--x--x--x--x------|
A---11-11-11-11-11--11-11-11-11-11--11-11-11-11-11--11-11-11-11-11-----|
E----------------------------------------------------------------------|
CmWhen the moon and I are talking Down by the riverside The old man and me alone When I hear the gentle whistling From the whirlwind in the trees And the scent of the summer feels so intense CmThese are the BdaysAm I rAemember you Singing our songs to me CmOh these are the Adays AmI remember Cmyou ECelebrating Alife Like the Amworld E was yours When the Cmwalls come tumbling down And I’m Afeeling down and out I just Cmopen up a sixpack of AmemorFmies I Cmlight a cigarette grab my best friend jack and Lose Cmmyself in the warm distortion that’s Aon my stereFmo CmThese are the BdaysAm I rAemember you Singing our songs to me CmOh these are the Adays AmI remember Cmyou ECelebrating Alife Like the Amworld E was yours >>>Interlude Riff<<< I’m floating Cm I’m Bfloating home to Ayou My Cmwooden verb heartbeat Bgives me the creeps ToAnight I’m coming home to you CmOh these are the Adays AmI remember Cmyou ECelebrating Alife Like the Amworld E was yours CmOh these are the Adays AmI remember Cmyou ECelebrating Alife Like the Amworld E was yours und das wars auch schon... :D Bitte bewerten, kommentieren und mich gerne verbessern :O Cheers...