Eminem - Im Shady Chords

 
No chord
Standard guitar tuning:
E
A
D
G
B
E
No capo

Intro

¯¯¯¯¯ ^=Bend
G|-----------------------------------|
D|-----------------------------------|
A|--------------6^-------------------|
E|2-2-2-2-2-2-2----------------------|
Rest Of The Song
¯¯¯¯¯¯¯¯¯¯¯¯¯¯¯¯
G|-----------------------------------|
D|-----------------------------------|
A|----------2-2-2-4-5--6^------------|
E|2-2-2-4-5--------------------------|