Eminem - Kill You Chords

 
No chord
Standard guitar tuning:
E
A
D
G
B
E
No capo
Repeated Through entire song
G  :----------------------------------|
D  :--3-----------------------------3-|
A  :1----1-3----3-----3----1--3--1----|
E  :---------1-----01-----------------|
Throw this in sometimes
You have to hit it perfect or it sounds wrong
G  :----3-------------|
D  :---3-3------------|
A  :------------------|
E  :------------------|