Eve 6 - Mr Bones Chords

 
No chord
Standard guitar tuning:
E
A
D
G
B
E
No capo
NOTES----------------------------------------------------------------------
| The entire song I think is just the same rhythmn til the 2nd pre-chorus | and the bridge.
+--------------------------------------------------------------------------
RHYTHMN GUITAR:
   d d ud ud d
e|-----------------------|
B|-3-3-33-33-3-----------|
G|-5-5-55-55-5-----------|
D|-5-5-55-55-5-----------|
A|-3-3-33-33-3-----------|
E|-----------------------|
VERSES, CHORUS, & OUTRO are the rhythmn guitar repeating

Bridge

e|--------------------------------------|
B|--------------------------------------|
G|-5---------------------------5--------|
D|-5--------------------5------5--------|
A|-3--------------------5------3--------|
E|----------------------3---------------|
"Keep the engine... (stop) You know I love goodbye's