Fakie - Quizas No Podia Ver Chords

 
No chord
Standard guitar tuning:
E
A
D
G
B
E
No capo

Intro

Guitarra 1
E|------------------------------7-5-4------------------------|
B|------5-4-5-------7-5-7-------------5----------------------|
G|-----------------------------------------------------------|
D|-----------------------------------------------------------|
A|-----------------------------------------------------------|
E|-----------------------------------------------------------|
Guitarra 2 Do#m Si Mi La
E|--4-4-4-4-4-4-|--2-2-2-2-2-2-|--0-0-0-0-0-0-|--0-0-0-0-0-0-|
B|--5-5-5-5-5-5-|--4-4-4-4-4-4-|--0-0-0-0-0-0-|--2-2-2-2-2-2-|
G|--6-6-6-6-6-6-|--4-4-4-4-4-4-|--1-1-1-1-1-1-|--2-2-2-2-2-2-|
D|--6-6-6-6-6-6-|--4-4-4-4-4-4-|--2-2-2-2-2-2-|--2-2-2-2-2-2-|
A|--4-4-4-4-4-4-|--2-2-2-2-2-2-|--2-2-2-2-2-2-|--0-0-0-0-0-0-|
e|--4-4-4-4-4-4-|--2-2-2-2-2-2-|--0-0-0-0-0-0-|--0-0-0-0-0-0-|
E|---------------------------------------------------------|
B|----5-4-5-----7-5-4----------5---------------------------|
G|---------------------------------------------------------|
D|---------------------------------------------------------|
A|---------------------------------------------------------|
E|---------------------------------------------------------|
Guitarra 2 Do#m Si La
E|--4-4-4-4-4-4-|--2-2-2-2-2-2-|--0-0-0-0-0-0-0-0-0-0-0-0|
B|--5-5-5-5-5-5-|--4-4-4-4-4-4-|--0-0-0-0-0-0-0-0-0-0-0-0|
G|--6-6-6-6-6-6-|--4-4-4-4-4-4-|--1-1-1-1-1-1-1-1-1-1-1-1|
D|--6-6-6-6-6-6-|--4-4-4-4-4-4-|--2-2-2-2-2-2-2-2-2-2-2-2|
A|--4-4-4-4-4-4-|--2-2-2-2-2-2-|--2-2-2-2-2-2-2-2-2-2-2-2|
e|--4-4-4-4-4-4-|--2-2-2-2-2-2-|--0-0-0-0-0-0-0-0-0-0-0-0|
Do#m Si Mi La Digo que todo esto tiene un porque Do#m Si La Te miras al espejo y gritas que pasa Do#m Si Mi La Antes no te hablaba quizas no podia ver Do#m Si La Todo tu esfuerzo y los años pasan CORO D#m Si (La) Y hoy que miro tus ojos noto el porque La Si Quizas siempre lo supe y simplemente no lo queria ver Do#m Si Tanto tiempo sola para mi era normal La Mi pasaba el dia y tu dormias estando en soledad /sDomi/la /||--> x2 Do#m Si Mi La Tengo mas que claro se que me encerré Do#m Si La Me miraba al espejo y no veia nada Do#m Si Mi La Tu conmigo al lado siempre como no pude ver Do#m Si La Tus ojos que por dentro se quemaban CORO
D|---7-7-7-7--5-4-0--------| ----punteo
D#m Si (La) Y hoy que miro tus ojos noto el porque La Si Quizas siempre lo supe y simplemente no lo queria ver Do#m Si Tanto tiempo sola para mi era normal La Si pasaba el dia y tu dormias estando en soledad /sDomi/la /||--> x2 La Mi Re Te recuerdo siempre a mi lado La Mi Re buscando todo para daaarmelo uoouuoooh La Mi Re yo sentado aquí un dibujo que haré La Mi Re que nos dice ante yo hay estaréee

Outro

||Do#m/si/la /||--> x4