Fall Out Boy - What A Catch Donnie Acoustic Chords

 
No chord
Standard guitar tuning:
E
A
D
G
B
E
No capo

Intro

E||--0----0----2----0----|--0----0----2----0----|--0----------------|
B||--0----0----2----0----|--0----0----3----2----|--2----------------|
G||--6----6----2----1----|--7----6----4----2----|--2----------------|
D||--7----6----4----2----|--7----7----4----2----|--2----------------|
A||--7----7----4----2----|--5----4----2----0----|--0----------------|
E||--5----4----2----0----|----------------------|-------------------|

Verse

--0----0----2----0----|--0----0----2--------|
--0----0----2----0----|--0----0----2--------|
--6----6----2----1----|--7----6----2--------|
--7----6----4----2----|--7----7----4--------|
--7----7----4----2----|--5----4----4--------|
--5----4----2----0----|------------2--------|
--0----0----2-----------------------|--0----0----2--------|
--0----0----2--------------5--------|--0----0----2--------|
--7----6----2---1-2-4-4-/6---6-\4-2-|--7----6----2--------|
--7----7----4-4---------------------|--7----7----4--------|
--5----4----4-----------------------|--5----4----4--------|
------------2-----------------------|------------2--------|
Pre chorus riff
----------------------|
----------------------|
----------------------|
--7----6----5----4----|
----------------------|
--5----4----3----2----|
Chorus x 2
--1----0----1----0----|--1---------3----0----|-------|
--1----1----3----1----|--3----1----3----1----|-------|
--2----0----2----0----|--3----2----3----0----|-------|
--3----2----0----2----|--3----3----5----2----|-------|
--3----3---------3----|--1----0----5----3----|-------|
--1----0--------------|------------3---------|-------|

Verse break

--0----0----2----0----|
--0----0----2----0----|
--6----6----2----1----|
--7----6----4----2----|
--7----7----4----2----|
--5----4----2----0----|
Repeat Verse Chorus
Bridge x 2
--0----0----2----0----|--0----0----2--------|
--0----0----2----0----|--0----0----2--------|
--6----6----2----1----|--7----6----2--------|
--7----6----4----2----|--7----7----4--------|
--7----7----4----2----|--5----4----4--------|
--5----4----2----0----|------------2--------|

Bridge break

|--0----0----2----0----|
|--0----0----2----0----|
|--6----6----2----1----|
|--7----6----4----2----|
|--7----7----4----2----|
|--5----4----2----0----|
--0----0----2------------------------|
--0----0----3------------------------|
--7----6----4------------------------|
--7----7----4----7----6----5----4----|
--5----4----2------------------------|
-----------------5----4----3----2----|
Chorus till end
--1----0----1----0----|--1---------3----0----|-------|
--1----1----3----1----|--3----1----3----1----|-------|
--2----0----2----0----|--3----2----3----0----|-------|
--3----2----0----2----|--3----3----5----2----|-------|
--3----3---------3----|--1----0----5----3----|-------|
--1----0--------------|------------3---------|-------|