Flobots - Rise Chords

Main Riff
Chorus Riff
 
No chord
Standard guitar tuning:
E
A
D
G
B
E
No capo

Intro

G|----------------|
D|2-2-2-2---------|
A|----------------|
E|--------4-4-4-4-|
Play that twice, go into this for rest of song
G|----------------|
D|2-2-2-24--------|
A|----------------|
E|--------4-4-4-4-|
Sometimes this
G|------------------|
D|------------------|
A|------------------|
E|0-0-0-02-4-4-4-4--|
Slide at chorus
G|-------|
D|-------|
A|7/11---|
E|-------|
That is 11, not two ones.