Flogging Molly - Float Chords

Main Riff
Main Riff
 
         
         
         
         
         
X
2
1
         
         
         
         
         
X
2
3
1
4
5 fr
         
         
         
         
         
X
1
1
1
1
5 fr
         
         
         
         
         
1
3
1
1
1
1
5 fr
         
         
         
         
         
1
3
1
1
4
1
7 fr
         
         
         
         
         
X
1
4
2
3

10 fr
         
         
         
         
         
X
2
1
3
1
4
12 fr
         
         
         
         
         
X
1
3
1
2
4
5 fr
         
         
         
         
         
X
         
         
         
         
         
X
2
3
1
4
5 fr
         
         
         
         
         
1
2
3
1
4
1
7 fr
         
         
         
         
         
X
X
1
3
1
2
10 fr
         
         
         
         
         
X
3
1
2
1
4
         
         
         
         
         
X
2
3
1
5 fr
         
         
         
         
         
1
3
4
1
1
1
5 fr
         
         
         
         
         
X
X
1
1
1
8 fr
         
         
         
         
         
X
3
2
4
1
2 fr
         
         
         
         
         
X
1
4
4
4
7 fr
         
         
         
         
         
X
1
3
4
2

9 fr
         
         
         
         
         
X
4
3
1
2
X
12 fr
         
         
         
         
         
X
1
3
4
2
1
5 fr
         
         
         
         
         
X
         
         
         
         
         
X
3
2
1
3 fr
         
         
         
         
         
X
1
2
3
4
1
8 fr
         
         
         
         
         
1
3
4
2
1
1
3 fr
         
         
         
         
         
X
1
X
3
4
1
5 fr
         
         
         
         
         
3
2
1
1
1
4
10 fr
         
         
         
         
         
X
X
1
3
4
3

12 fr
         
         
         
         
         
X
4
3
1
2
1
3 fr
         
         
         
         
         
X
         
         
         
         
         
X
X
2
3
1
5 fr
         
         
         
         
         
X
1
3
4
2
1
10 fr
         
         
         
         
         
X
X
1
1
1
5 fr
         
         
         
         
         
X
X
3
2
1
2 fr
         
         
         
         
         
X
4
3
1
2
X
10 fr
         
         
         
         
         
1
3
4
1
1
1

12 fr
         
         
         
         
         
X
X
1
3
4
2
         
         
         
         
         
3
2
4
3 fr
         
         
         
         
         
1
3
4
2
1
1
         
         
         
         
         
2
1
3
4
3 fr
         
         
         
         
         
X
X
3
2
1
1
5 fr
         
         
         
         
         
X
X
1
3
4
3
7 fr
         
         
         
         
         
X
4
3
1
2
1

10 fr
         
         
         
         
         
X
1
2
3
4
X
10 fr
         
         
         
         
         
X
1
3
3
3
1
12 fr
         
         
         
         
         
3
2
1
1
1
4
         
         
         
         
         
1
3
4
2
1
1
5 fr
         
         
         
         
         
X
4
3
1
2
1
3 fr
         
         
         
         
         
X
X
1
2
4
3
         
         
         
         
         
X
X
3
2
1
1
8 fr
         
         
         
         
         
X
1
3
3
3
1
10 fr
         
         
         
         
         
4
3
1
1
1
X

10 fr
         
         
         
         
         
3
2
1
1
1
4
No chord
Standard guitar tuning:
E
A
D
G
B
E
No capo
     Am7     Am6   F7M/A    Am      C

Dm

e|---3--------2------1--------0-------0---3---1-----------| B|---1--------1------1--------1-------1---3---3-----------| G|---2--------2------2--------2-------0---0---2-----------| D|---2--------2------2--------2-------2---0---0-----------| A|---0--------0------0--------0-------3---2---------------| E|----------------------------------------3---------------|
Am7drank away the rest of the day Am6wonder what my liver'd say F7M/Adrink, it's all you Amcan Am7blackened days with their bigger gales blow Am6in your parlor to discuss the day F7M/Alisten, it's all you Amcan but Cdon't, don't sink the Gboat that you nDmeed, you build to keep afAmloat. no Cdon't, don't sink the bGoat that you bDmuilt... Am7sick and tired of what to say Am6jumped away from the ball and chain F7M/Abreath, it's all you Amcan Am7rambling years of lousy luck Am6miss the smell of burning turf F7M/Adream, it's all you Amcan but dCon't, don't sink the bGoat that you bDmuilt, you built to keep afAmloat. no dCon't, don't sink the bGoat that you bDmuilt...

Interlude x2

e|-------------------------------------------------------|
B|--5-5--6-5h6p5----------5-5--6-5h6p5-------------------|
G|---------------7-5-------------------7-5---------------|
D|-------------------7---------------------7-------------|
A|-------------------------------------------------------|
E|-------------------------------------------------------|
e|-------------------------------------------------------|
B|--5-5--6-5h6p5-----------------------------------------|
G|---------------7-5-4----4-5-7--------------------------|
D|----------------------7--------------------------------|
A|-------------------------------------------------------|
E|-------------------------------------------------------|
Am7singled out for who you are Am6takes all types to be a man F7M/Afeel, it's all you Amcan Am7filthy suits with bigot ears Am6hide behind their own worst fears F7M/Alive, it's all you Amcan iFt's all you Amcan Fit's all you cCan...dAmo.

Interlude x2

e|-------------------------------------------------------|
B|--5-5--6-5h6p5----------5-5--6-5h6p5-------------------|
G|---------------7-5-------------------7-5---------------|
D|-------------------7---------------------7-------------|
A|-------------------------------------------------------|
E|-------------------------------------------------------|
e|-------------------------------------------------------|
B|--5-5--6-5h6p5-----------------------------------------|
G|---------------7-5-4----4-5-7--------------------------|
D|----------------------7--------------------------------|
A|-------------------------------------------------------|
E|-------------------------------------------------------|
Am7no matter where i put my head Am6i wake up feeling sound again F7M/Abreath, it's all you Amcan Am7tomorrow smells of less decay Am6beats the bows that bloom the fray F7M/Abe thankful, it's all you Amcan but dCon't, don't sink the bGoat that you bDmuilt, you built to keep afAmloat. but dCon't, don't sink the bGoat that you bDmuilt, you built to keep afAmloat. but dCon't, don't sink the bGoat that you bDmuilt, you built to keep afAmloat. no dCon't, no don't sink the bGoat that you bDmuilt we all built to keep afAmloat
instrumental interlude to end
over Am chord
e|-------------------------------------------------------|
B|--5-5--6-5h6p5----------5-5--6-5h6p5-------------------|
G|---------------7-5-------------------7-5---------------|
D|-------------------7---------------------7-------------|
A|-------------------------------------------------------|
E|-------------------------------------------------------|
e|-------------------------------------------------------|
B|--5-5--6-5h6p5-----------------------------------------|
G|---------------7-5-4----4-5-7--------------------------|
D|----------------------7--------------------------------|
A|-------------------------------------------------------|
E|-------------------------------------------------------|
it's a ripe old age it's a ripe old age it's a ripe old age that's what i am a ripe old age a ripe old age a ripe old age that’s what i am And for any mandolin or violin players, the interlude is as follows:
e|--0-0-1-0h1p0----------0-0-1-0h1p0---------------------|
A|--------------5-3-0----------------5-3-0---------------|
D|-------------------------------------------------------|
G|-------------------------------------------------------|
e|--0-0-1-0h1p0------------------------------------------|
A|--------------5-3-2---0-2-3-5--------------------------|
D|-------------------------------------------------------|
G|-------------------------------------------------------|