Flyleaf - Again Acoustic Chords

 
No chord
Standard guitar tuning:
E
A
D
G
B
E
No capo

Intro

e-------------------------------------------------------|
b-8---8-8-8-8---11--11111111--6---6-6-6-6---6---6-6-6-6-|
g-7---7-7-7-7---10--10101010--5---5-5-5-5---5---5-5-5-5-|X4
d-5---5-5-5-5---8---8-8-8-8---3---3-3-3-3---3---3-3-3-3-|
a-5---5-5-5-5---8---8-8-8-8---3---3-3-3-3---3---3-3-3-3-|
E-------------------------------------------------------|

Verse

quieter than the intro (and chorus)
e-------------------------------------------------------|
b-8---8-8-8-8---11--11111111--6---6-6-6-6---6---6-6-6-6-|
g-7---7-7-7-7---10--10101010--5---5-5-5-5---5---5-5-5-5-|X4
d-5---5-5-5-5---8---8-8-8-8---3---3-3-3-3---3---3-3-3-3-|
a-5---5-5-5-5---8---8-8-8-8---3---3-3-3-3---3---3-3-3-3-|
E-------------------------------------------------------|

Chorus

back to loud like the intro
e-------------------------------------------------------|
b-8---8-8-8-8---11--11111111--6---6-6-6-6---6---6-6-6-6-|
g-7---7-7-7-7---10--10101010--5---5-5-5-5---5---5-5-5-5-|X2
d-5---5-5-5-5---8---8-8-8-8---3---3-3-3-3---3---3-3-3-3-|
a-5---5-5-5-5---8---8-8-8-8---3---3-3-3-3---3---3-3-3-3-|
E-------------------------------------------------------|
e-------------------------------------------------------|
b-4---4-4-4-4---8---8-8-8-8---11--11111111--6---6-6-6-6-|
g-3---3-3-3-3---7---7-7-7-7---10--10101010--5---5-5-5-5-|X1
d-1---1-1-1-1---5---5-5-5-5---8---8-8-8-8---3---3-3-3-3-|
a-1---1-1-1-1---5---5-5-5-5---8---8-8-8-8---3---3-3-3-3-|
E-------------------------------------------------------|
e-------------------------------------------------------|
b-4---4-4-4-4---8---8-8-8-8---6---6-6-6-6---6---6-6-6-6-|
g-3---3-3-3-3---7---7-7-7-7---5---5-5-5-5---5---5-5-5-5-|X1
d-1---1-1-1-1---5---5-5-5-5---3---3-3-3-3---3---3-3-3-3-|
a-1---1-1-1-1---5---5-5-5-5---3---3-3-3-3---3---3-3-3-3-|
E-------------------------------------------------------|

Verse

e-------------------------------------------------------|
b-8---8-8-8-8---11--11111111--6---6-6-6-6---6---6-6-6-6-|
g-7---7-7-7-7---10--10101010--5---5-5-5-5---5---5-5-5-5-|X4
d-5---5-5-5-5---8---8-8-8-8---3---3-3-3-3---3---3-3-3-3-|
a-5---5-5-5-5---8---8-8-8-8---3---3-3-3-3---3---3-3-3-3-|
E-------------------------------------------------------|

Chorus

e-------------------------------------------------------|
b-8---8-8-8-8---11--11111111--6---6-6-6-6---6---6-6-6-6-|
g-7---7-7-7-7---10--10101010--5---5-5-5-5---5---5-5-5-5-|X2
d-5---5-5-5-5---8---8-8-8-8---3---3-3-3-3---3---3-3-3-3-|
a-5---5-5-5-5---8---8-8-8-8---3---3-3-3-3---3---3-3-3-3-|
E-------------------------------------------------------|
e-------------------------------------------------------|
b-4---4-4-4-4---8---8-8-8-8---11--11111111--6---6-6-6-6-|
g-3---3-3-3-3---7---7-7-7-7---10--10101010--5---5-5-5-5-|X1
d-1---1-1-1-1---5---5-5-5-5---8---8-8-8-8---3---3-3-3-3-|
a-1---1-1-1-1---5---5-5-5-5---8---8-8-8-8---3---3-3-3-3-|
E-------------------------------------------------------|
e-------------------------------------------------------|
b-4---4-4-4-4---8---8-8-8-8---6---6-6-6-6---6---6-6-6-6-|
g-3---3-3-3-3---7---7-7-7-7---5---5-5-5-5---5---5-5-5-5-|X1
d-1---1-1-1-1---5---5-5-5-5---3---3-3-3-3---3---3-3-3-3-|
a-1---1-1-1-1---5---5-5-5-5---3---3-3-3-3---3---3-3-3-3-|
E-------------------------------------------------------|

Bridge

As loud as the chorus
e----------------------------------------------------|
b-4---4---4---4---4-4-4-4---8---8---8---8---8-8-8-8--|
g-3---3---3---3---3-3-3-3---7---7---7---7---7-7-7-7--|X1
d-1---1---1---1---1-1-1-1---5---5---5---5---5-5-5-5--|
a-1---1---1---1---1-1-1-1---5---5---5---5---5-5-5-5--|
E----------------------------------------------------|
e--------------------------------------------------------|
b-12--12121212--11--11111111--12--12121212--11--11111111-|
g-11--11111111--11--11111111--11--11111111--11--11111111-|X1
d-9---9-9-9-9---9---9-9-9-9---9---9-9-9-9---9---9-9-9-9--|
a-9---9-9-9-9---9---9-9-9-9---9---9-9-9-9---9---9-9-9-9--|
E--------------------------------------------------------|
e----------------------------------------------------|
b-4---4---4---4---4-4-4-4---8---8---8---8---8-8-8-8--|
g-3---3---3---3---3-3-3-3---7---7---7---7---7-7-7-7--|X1
d-1---1---1---1---1-1-1-1---5---5---5---5---5-5-5-5--|
a-1---1---1---1---1-1-1-1---5---5---5---5---5-5-5-5--|
E----------------------------------------------------|
e--------------------------------------|
b-12--12121212--11--11111111--12-------|
g-11--11111111--11--11111111--11-(hold-|X1
d-9---9-9-9-9---9---9-9-9-9---9---last-|
a-9---9-9-9-9---9---9-9-9-9---9--note)-|
E--------------------------------------|

Outro pt1

e-------------------------------------------------------|
b-8---8-8-8-8---11--11111111--6---6-6-6-6---6---6-6-6-6-|
g-7---7-7-7-7---10--10101010--5---5-5-5-5---5---5-5-5-5-|X2
d-5---5-5-5-5---8---8-8-8-8---3---3-3-3-3---3---3-3-3-3-|
a-5---5-5-5-5---8---8-8-8-8---3---3-3-3-3---3---3-3-3-3-|
E-------------------------------------------------------|
e-------------------------------------------------------|
b-4---4-4-4-4---9---9-9-9-9---11--11111111--6---6-6-6-6-|
g-3---3-3-3-3---7---7-7-7-7---10--10101010--5---5-5-5-5-|X1
d-1---1-1-1-1---5---5-5-5-5---8---8-8-8-8---3---3-3-3-3-|
a-1---1-1-1-1---5---5-5-5-5---8---8-8-8-8---3---3-3-3-3-|
E-------------------------------------------------------|
e--------------------------------------------------------|
b-8---8-8-8-8---11--11111111--13--13131313--13--13131313-|
g-7---7-7-7-7---10--10101010--12--12121212--12--12121212-|X1
d-5---5-5-5-5---8---8-8-8-8---10--10101010--10--10101010-|
a-5---5-5-5-5---8---8-8-8-8---10--10101010--10--10101010-|
E--------------------------------------------------------|

Outro pt2

e-------------------------------------------------------|
b-8---8-8-8-8---11--11111111--6---6-6-6-6---6---6-6-6-6-|
g-7---7-7-7-7---10--10101010--5---5-5-5-5---5---5-5-5-5-|X3
d-5---5-5-5-5---8---8-8-8-8---3---3-3-3-3---3---3-3-3-3-|
a-5---5-5-5-5---8---8-8-8-8---3---3-3-3-3---3---3-3-3-3-|
E-------------------------------------------------------|
e--------------------------------------------------------|
b-8---8-8-8-8---11--11111111--13--13131313--13--13131313-|
g-7---7-7-7-7---10--10101010--12--12121212--12--12121212-|X1
d-5---5-5-5-5---8---8-8-8-8---10--10101010--10--10101010-|
a-5---5-5-5-5---8---8-8-8-8---10--10101010--10--10101010-|
E--------------------------------------------------------|

Outro pt3

Ends Song)
e-------------------------------------------------------|
b-8---8-8-8-8---11--11111111--6---6-6-6-6---6---6-6-6-6-|
g-7---7-7-7-7---10--10101010--5---5-5-5-5---5---5-5-5-5-|X2
d-5---5-5-5-5---8---8-8-8-8---3---3-3-3-3---3---3-3-3-3-|
a-5---5-5-5-5---8---8-8-8-8---3---3-3-3-3---3---3-3-3-3-|
E-------------------------------------------------------|
e-------------------------------------------------------|
b-4---4-4-4-4---9---9-9-9-9---11--11111111--6---6-6-6-6-|
g-3---3-3-3-3---7---7-7-7-7---10--10101010--5---5-5-5-5-|X1
d-1---1-1-1-1---5---5-5-5-5---8---8-8-8-8---3---3-3-3-3-|
a-1---1-1-1-1---5---5-5-5-5---8---8-8-8-8---3---3-3-3-3-|
E-------------------------------------------------------|
e---------------------------------------|
b-8---8-8-8-8---11--11111111--13--(hold-|
g-7---7-7-7-7---10--10101010--12---last-|X1
d-5---5-5-5-5---8---8-8-8-8---10--note)-|
a-5---5-5-5-5---8---8-8-8-8---10--------|
E---------------------------------------|