Flyleaf - Red Sam Acoustic Chords

 
No chord
Standard guitar tuning:
E
A
D
G
B
E
No capo

Intro

|----------4-5----------5-------
|--12------7-8----------8-12----
|--11------6-7----------7-11----
|--9-------4-5----------5-9-----
|--9-------4-5----------5-9-----
|--9-----------0-0-00-----9-----
Diverged with this:
|--9-----------4---------5----------------5-------|
|--12----------7---------8----------------8-------|
|--11----------6---------7----------------7-------|
|--9-----------4---------5----------------5-------|
|--9-----------4---------5----------------5-------|
|--9--------------------------------5-5-5-0-------|

Verse

|-------9----|
|-------12---|
|--11-6-11---|
|-------9----|   Last chord pluck the strings
|--9--4-9----|
|-------9----|

Chorus

|---9------9--5---|
|---12-----12-8---|
|---11-----11-7---|
|---9------9--5---|
|---9------9--5---|
|---9------0--5---|

Break

palm muted):
|---------5------7-------5-------|
|---------8------10------8-------|
|--12-----7------9-------7-------|
|--11-----5------7-------5-------|
|--9------5------7-------5-------|
|--9---------------------5-------|