Frightened Rabbit - Good Arms Vs Bad Arms Chords

 
         
         
         
         
         
2
3
3 fr
         
         
         
         
         
X
X
2
4
1
7 fr
         
         
         
         
         
X
1
3
4
2
1
2 fr
         
         
         
         
         
X
X
1
3
4
2
3 fr
         
         
         
         
         
X
3
2
4
1
4 fr
         
         
         
         
         
X
4
3
1
2
X

12 fr
         
         
         
         
         
1
3
4
1
1
1
         
         
         
         
         
3
2
4
3 fr
         
         
         
         
         
1
3
4
2
1
1
         
         
         
         
         
2
1
3
4
3 fr
         
         
         
         
         
X
X
3
2
1
1
5 fr
         
         
         
         
         
X
X
1
3
4
3
7 fr
         
         
         
         
         
X
4
3
1
2
1

10 fr
         
         
         
         
         
X
1
2
3
4
X
10 fr
         
         
         
         
         
X
1
3
3
3
1
12 fr
         
         
         
         
         
3
2
1
1
1
4
         
         
         
         
         
X
3
2
1
3 fr
         
         
         
         
         
X
1
2
3
4
1
8 fr
         
         
         
         
         
1
3
4
2
1
1
3 fr
         
         
         
         
         
X
1
X
3
4
1
5 fr
         
         
         
         
         
3
2
1
1
1
4
10 fr
         
         
         
         
         
X
X
1
3
4
3

12 fr
         
         
         
         
         
X
4
3
1
2
1
3 fr
         
         
         
         
         
X
         
         
         
         
         
X
2
1
         
         
         
         
         
X
2
3
1
4
5 fr
         
         
         
         
         
X
1
1
1
1
5 fr
         
         
         
         
         
1
3
1
1
1
1
5 fr
         
         
         
         
         
1
3
1
1
4
1
7 fr
         
         
         
         
         
X
1
4
2
3

10 fr
         
         
         
         
         
X
2
1
3
1
4
12 fr
         
         
         
         
         
X
1
3
1
2
4
5 fr
         
         
         
         
         
X
No chord
Standard guitar tuning:
E
A
D
G
B
E
No capo
the bass up from the root G note, to F#, then leave it open for then Em.

Intro

     |Repeat Ad Lib|
e|-----------------------------------------------------------------------------------------------|
B|-----------------------------------------------------------------------------------------------|
G|-----------------------------------------------------------------------------------------------|
D|-----------------------------------------------------------------------------------------------|
A|-----2-------2--------2p0---------0--------0h2-------2---------2-------2h3------3-----3--------|
E|--3-------3--------3----------3---------3---------3---------3------3-------3------3------------|
Repeat Section Twice:             Then- Twice:
e|---------------------------|-------------------------------------------------------------------|
B|---------------------------|---------------------------------------------------1---------------|
G|---------------------------|-------------------------------------------------------0h2---------|
D|---------------------------|-----------------------------------2-------2----2------------------|
A|----3p2--------2p0-----0h2-|----2-----2-----2p0----0h2---------2----2----2-----3-------------2-|
E|-3--------3--------3-------|3-----3-------3------3-------3--2--0----0----0---------------3-----|

Verse 1

GGood arms, versEmus bad arms, CWill win hands doEmwn, dowGn GThey are builtEm to hold and fit CLook how far Emthey go arounGd

Verse 2

GYou don't need these now tEmhat CYou've foEmund another Gpair GAnd the difference asEmtounding, CI should expeGct... ExcEmept

Chorus 1

LeavGe the restC at arm's lGength C Keep your naked flesh Emunder your favourite dresGs And Gleave the Crest at armG's lenCgth When they reach out, Emdon't touch them, don't touch thGem

Verse 3

GSo I decided thisEm decision some six Gmonths ago Em C G GSo I'll stick to my guns, Embut from now on it's waGr Em C G GI am armed with the pasEmt, and the wiCll, and a bricGk Em C G GI might not want you baEmck, but I wanCt to kill him G Em C G

Chorus 2

LeavGe the restC at arm's lGength C Keep your naked flesh Emunder your favourite dressG And Gleave the Crest at armG's lenCgth When they reach out, Emdon't touch them, don't touch thGem CDon't touch them And Gleave the Crest at armG's lenCgth Don't brush with him, he mEmight have dGiseases And Gleave the Crest at armG's lenCgth Steer clear of the graEmsp, girl GRun, runC, away

Link

Em C G

Interlude

Am7 C Ad

Chorus 3

And Gleave the Crest at armG's lenCgth GJust roll over boy and don'Emt make me do this And Gleave the Crest at armG's lenCgth I am armed to the teEmeth and Im heavy seGt And Gleave the Crest at armG's lenCgth I'm not ready to seEme you this happy G And Gleave the Crest at armG's lenCgth Im still in love wiEmth you (can't adGmit it yet)

Outro

G C G C Ad