From Autumn to Ashes - Chloroform Perfume Chords

Main Riff
Main Riff
 
No chord
Standard guitar tuning:
E
A
D
G
B
E
No capo
e|---0-----0-----3or0---3or0--------------------------------------------------|
B|---0-----0or1--3or0---3or0--------------------------------------------------|
G|---0-----0-----0------0-----------------------------------------------------|
D|---2-----2-----0------0-----------------------------------------------------|
A|---2-----3-----2------0-----------------------------------------------------|
E|---0-----0-----3------2-----------------------------------------------------|
repeat thru verse

Prechorus

e|---0----0------------------------------------------------------------------|
B|---1----0------------------------------------------------------------------|
G|---0----0------------------------------------------------------------------|
D|---2----2------------------------------------------------------------------|
A|---3----2------------------------------------------------------------------|
E|---0----0------------------------------------------------------------------|
"you said so much without every parting your lips"

Chorus

e|---0-----0-----0-----------------------------------------------------------|
B|---0-----0-----0-----------------------------------------------------------|
G|---9-----7-----5-----------------------------------------------------------|
D|---9-----7-----5-----------------------------------------------------------|
A|---7-----5-----3-----------------------------------------------------------|
E|---0-----0-----0-----------------------------------------------------------|
Bridge..here instead of the picking these chords are a filler behind which you could play
e|---0----0----0-------------------------------------------------------------|
B|---0----0----0-------------------------------------------------------------|
G|---7----9----11------------------------------------------------------------|
D|---7----9----11------------------------------------------------------------|
A|---5----7----9-------------------------------------------------------------|
E|---0----0----0-------------------------------------------------------------|
thats pretty much it...i now its not perfect but i improvised because i didn't want to all the picking...have fun...em