Fu Manchu - Ampn Chords

 
No chord
Standard guitar tuning:
E
A
D
G
B
E
No capo

Intro

-------------------------------|
-------------------------------|
-------7-7-----7-7-------------|
-9-----7-7-7-7-7-7-7-7---------| x2
-9-----5-5-7-7-5-5-7-7---------|
-7---------5-5-----5-5---------|

Chorus chords

--------------------------------------------|
--------------------------------------------|
--------------------------------------------|
--7---9--7-7--------------7-----9--7-7------|
--7-S-9--7-7-------5--h7--7--S--9--7-7------|
--5---7--5-5--5--h7-------5-----7--5-5------|

Verse

------------------------------------------------------|
------------------------------------------------------|
--------------------7---------------------------------|
--7----9---7----9---7--9--7-7-7---9-------------------|
--7--S-9---7--S-9---5--9--7-7-7-S-9-------------------|
--5----7---5----7------7--5-5-5---7-------------------|
Enjoy ^^