Garbage - Number 1 Crush Chords

 

B5

variations
         
         
         
         
X
1
3
4
X
X
6 fr
         
         
         
         
1
3
4
X
X
X
8 fr
         
         
         
         
X
X
1
3
4
X
6 fr
         
         
         
         
X
X
3 fr
         
         
         
         
1
3
4
X
X
X
5 fr
         
         
         
         
X
X
1
3
4
X
10 fr
         
         
         
         
X
1
3
4
X
X
         
         
         
         
X
3 fr
         
         
         
         
X
X

B

variations
         
         
         
         
X
1
2
3
4
1
6 fr
         
         
         
         
1
3
4
2
1
1
         
         
         
         
X
1
4
4
4
X
         
         
         
         
X
1
X
3
4
1
3 fr
         
         
         
         
3
2
1
1
1
4
8 fr
         
         
         
         
X
X
1
3
4
3

10 fr
         
         
         
         
X
4
3
1
2
1

E

variations
3 fr
         
         
         
         
X
4
3
1
2
1
6 fr
         
         
         
         
X
1
2
3
4
1
         
         
         
         
X
X
1
2
4
3
3 fr
         
         
         
         
X
4
3
1
2
X
8 fr
         
         
         
         
4
3
1
1
1
X
8 fr
         
         
         
         
3
2
1
1
1
4

11 fr
         
         
         
         
1
3
4
2
1
1
3 fr
         
         
         
         
X
1
3
4
2
1
8 fr
         
         
         
         
1
3
4
1
1
1
         
         
         
         
X
3
1
X
X
         
         
         
         
X
4
1
2
X
8 fr
         
         
         
         
X
X
3
1
1
1
10 fr
         
         
         
         
X
X
1
3
4
2

12 fr
         
         
         
         
X
4
3
1
2
X
3 fr
         
         
         
         
1
3
4
1
1
1
5 fr
         
         
         
         
X
X
1
3
4
2
3 fr
         
         
         
         
X
X
3
1
1
1
         
         
         
         
1
X
2
3
4
         
         
         
         
3
1
X
X
X
         
         
         
         
2
1
3
4

7 fr
         
         
         
         
X
4
3
1
2
X
10 fr
         
         
         
         
X
1
3
4
2
1
3 fr
         
         
         
         
X
1
3
4
X
X
8 fr
         
         
         
         
1
3
4
X
X
X
10 fr
         
         
         
         
X
X
1
3
4
X
3 fr
         
         
         
         
X
X
         
         
         
         
X
X
1
2
X
5 fr
         
         
         
         
X
1
3
4
X
X
10 fr
         
         
         
         
1
3
4
X
X
X
         
         
         
         
X
1
2
3
5 fr
         
         
         
         
1
3
4
2
1
1
2 fr
         
         
         
         
X
1
1
1
4
         
         
         
         
X
X
1
2
2 fr
         
         
         
         
3
2
1
1
1
4
7 fr
         
         
         
         
X
X
1
3
4
3

9 fr
         
         
         
         
X
4
3
1
2
1
12 fr
         
         
         
         
X
1
3
3
3
1
7 fr
         
         
         
         
1
3
4
2
1
1
         
         
         
         
X
2
1
X
3
         
         
         
         
X
1
4
4
4
X
         
         
         
         
X
1
3
3
3
1
4 fr
         
         
         
         
4
3
1
1
1
X
4 fr
         
         
         
         
3
2
1
1
1
4

9 fr
         
         
         
         
X
X
1
3
4
3
11 fr
         
         
         
         
X
4
3
1
2
1
No chord
Drop guitar tuning
No capo
        B5  G5    B    E    Cm    Gm

C5 D5

E|-----------------1-----6-----3-----3-----------------------| B|-----------------3-----8-----4-----3-----------------------| G|-----------------3-----8-----5-----3-----8-----5-----------| D|-----8-----5-----3-----8-----5-----5-----8-----5-----0-----| A|-----8-----5-----1-----6-----3-----------6-----3-----0-----| D|-----8-----5-----------------------5-----------------0-----|
Main Guitar Riff: The main guitar riff starts at (0:11) Play the riff through out the first verse There are a couple ways to play this intro. I will put bot hin and let you choose. Since D string just ring through out the riff.
Intro Riff Version 1:
E|-----------------------------------|
B|-----------------------------------|
G|-------7-------7-------7-----------|
D|---0-------6-------0-------6---7---|
A|-----------------------------------|
D|-----------------------------------|
Intro Riff Version 2:
E|-----------------------------------|
B|-------3-------3-------3-----------|
G|-----------1---------------1---2---|
D|---0---------------0---------------|
A|-----------------------------------|
D|-----------------------------------|
     A
E|--------------------------------------------------------------|
B|--------------------------------------------------------------|
G|--------------------------------------------------------------|
D|--------------------------------------------------------------|
A|--------------------------------------------------------------|
D|-----5-(Bend Up to)-6-(let go and let the open string ring)---|
I would die for you I would die for you I've been dying just to feel you by my side B5 G5 To know that you're mine [Riff A] [Intro Riff Version 1] I will cry for you I will cry for you I will wash away your pain with all my tears B5 G5 And drown your fear [Riff A] For this part listen for the D5 & G5 also Riff A & Riff B listen to song for the cues. It has all parts in it pick your poison as to what to play. D5Ahh Ahh Ahhh Ahhh Ahhh D5 D5 D5 Ahh Ahh Ahhh Ahhh Ahhh B5Ah Ah Ah AhhhhhG5 D5 D5 D5Ahh Ahh Ahhh Ahhh Ahhh

Verse 2

Play intro riff I will pray for you I will pray for you I will sell my soul for something pure and true B5 G5 Someone like you [Riff A] BSee your face every place that I walk in GmHear your voice every time that I am talking EYou will believe in me CmAnd I will never be ignored [Riff A]
Intro Riff Version 3:
E|-------3-------3-------3-----------|
B|-----------2---------------2---3---|
G|---0---------------0---------------|
D|-----------------------------------|
A|-----------------------------------|
D|-----------------------------------|
[Intro Riff Version 3] I will burn for you Feel pain for you I will twist the knife and bleed my aching heart And tear it apart I will lie for you Beg and steal for you I will crawl on hands and knees until you see You're just like me BViolate all the love that I'm missing GmThrow away all the pain that I'm living EYou will believe in me CmAnd I can never be ignored D5[Riff A] For the outro just go with it. It has a little of the whole song. [Intro Riff 1] [Riff B] & [Riff A]. If you want to get fancy for this part strum once harmonics on strings 5,4,3,2 fret 7 and let them ring into feedback. I would die for you I would kill for you I will steal for you I'd do time for you I will wait for you G5 I'd make room for you D5 I'd sail ships for you B5 G5 To be close to you D5 To be part of you G5 'Cause I believe in you I believe in you D5 I would die for you[Riff A] This Bis the AHH AHH AHH Part
E|---------------------------|
B|-------------10---9---10---|
G|---/7---/10----------------|
D|---------------------------|
A|---------------------------|
D|---------------------------|
E|---------------------------|
B|--------------10---9---10--|
G|---/7---/10----------------|
D|---------------------------|
A|---------------------------|
D|---------------------------|
E|---------------------------|
B|--------------10---8-------|
G|---/7---/10----------------|
D|---------------------------|
A|---------------------------|
D|---------------------------|
E|---------------------------|
B|--------------10---9---10--|
G|---/7---/10----------------|
D|---------------------------|
A|---------------------------|
D|---------------------------|