Gary Allan - Right Where I Need To Be Chords

 
         
         
         
         
         
3
2
4
3 fr
         
         
         
         
         
1
3
4
2
1
1
         
         
         
         
         
2
1
3
4
3 fr
         
         
         
         
         
X
X
3
2
1
1
5 fr
         
         
         
         
         
X
X
1
3
4
3
7 fr
         
         
         
         
         
X
4
3
1
2
1

10 fr
         
         
         
         
         
X
1
2
3
4
X
10 fr
         
         
         
         
         
X
1
3
3
3
1
12 fr
         
         
         
         
         
3
2
1
1
1
4
         
         
         
         
         
X
X
1
3
2
2 fr
         
         
         
         
         
X
4
3
1
2
1
5 fr
         
         
         
         
         
X
1
2
3
4
1
5 fr
         
         
         
         
         
X
1
4
4
4
X
7 fr
         
         
         
         
         
4
3
1
1
1
X
7 fr
         
         
         
         
         
3
2
1
1
1
4

10 fr
         
         
         
         
         
1
3
4
2
1
1
12 fr
         
         
         
         
         
X
X
1
3
4
3
5 fr
         
         
         
         
         
X
X
         
         
         
         
         
X
1
2
3
5 fr
         
         
         
         
         
1
3
4
2
1
1
2 fr
         
         
         
         
         
X
1
1
1
4
         
         
         
         
         
X
X
1
2
2 fr
         
         
         
         
         
3
2
1
1
1
4
7 fr
         
         
         
         
         
X
X
1
3
4
3

9 fr
         
         
         
         
         
X
4
3
1
2
1
12 fr
         
         
         
         
         
X
1
3
3
3
1
No chord
Standard guitar tuning:
E
A
D
G
B
E
No capo

Intro

e|---10--10-10--10----10----10----10--10/12--12---12--12---12--12-----------|
B|---7/8--------8\7-7----7---7--7------7/10----10-10----10-10----10---------|
G|--------------------------------------------------------------------------|
D|--------------------------------------------------------------------------|
A|--------------------------------------------------------------------------|
E|--------------------------------------------------------------------------|
e|---10--10-10--10----10----10----------------------------------------------|
B|---7/8--------8\7-7----7-------7\3/5~-------------------------------------|
G|--------------------------------------------------------------------------|
D|--------------------------------------------------------------------------|
A|--------------------------------------------------------------------------|
E|--------------------------------------------------------------------------|
Intro is played then a drum fill is played then I think the intro is repeated. After that Gary starts singing.
These are the tabs for the chords to use during the song:

G D A

e|------3---------------2---------------x-----------------------------------| B|------3---------------3---------------2-----------------------------------| G|------0---------------2---------------2-----------------------------------| D|------0---------------0---------------2-----------------------------------| A|------2---------------0---------------0-----------------------------------| E|------3---------------x---------------x-----------------------------------|
G There's a pDlane flyin' Aoutta here tonight G DestinDation New OrAleans G Boss man Dsays my big proAmotion's on the line He says that'sG right where DI need to Abe GLately I've been Don the road Amore than I've been home All this Gleavin' her aDlone is killin'A me And Gholdin' her right Dnow has got me Athinkin' more and more This is Gright where DI need to Abe Where when I Ghear her I can Dsee her I can Asmell her sweet perfume I can Gfeel her skin againDst me when I sAleep Where I won't Gmiss her I can Dkiss her AnyAtime that I want to Yeah that's Gright where DI need to Abe Yeah that's Gright where DI need to Abe WHAOW!

G D A

G D A

G There's a Dplane flyin' Aoutta here tonight G With an Dempty first class Aseat G Cause I've finally Dgot all my priAorities in line And I'm Gright where DI need to Abe Where when I Ghear her I can Dsee her I can Asmell her sweet perfume I can Gfeel her skin againDst me when I sAleep Where I won't Gmiss her I can Dkiss her AnyAtime that I want to Yeah that's Gright where DI need to Abe Yeah I'm rigGht where DI need to Abe | / slide up | \ slide down | ~ vibrato | x Mute note