Gbh - Knife Edge Chords

 
No chord
Standard guitar tuning:
E
A
D
G
B
E
No capo
e---------------------------------------|
B---------------------------------------|
D-7-7-7-7-7-10--------------------------|
G-7-7-7-7-7-10--------------------------|
A-5-5-5-5-5-8---------------------------|
E---------------------------------------|
This is the intro, you hold the last note for a bit.
e---------------------------------------|
B---------------------------------------|
D-7-7-7-7-7-1010101010-7-7-7-7-7-10-5---|
G-7-7-7-7-7-1010101010-7-7-7-7-7-10-5---|
A-5-5-5-5-5-8-8-8-8-8--5-5-5-5-5-8--3---|
E---------------------------------------|
This is for the most part the main part, you play this through different parts of the song.
e---------------------------------------------------|
B---------------------------------------------------|
D---------------------------------------------------|
G-7-7-7-7-5-4-5-7-7-7-7-5-4-5-7-7-7-7-5-4-5-7---5-4-|
A-7-7-7-7-5-4-5-7-7-7-7-5-4-5-7-7-7-7-5-4-5-7---5-4-|
E-5-5-5-5-3-2-3-5-5-5-5-3-2-3-5-5-5-5-3-2-3-5---3-2-|
This part goes after the one above, and also goes a few times throughout the song. e--- B--- D-7- G-7- A-5- E--- Then the song ends on this chord.