Genesis - We Cant Dance Chords

 
         
         
         
         
X
3
2
1
3 fr
         
         
         
         
X
1
2
3
4
1
8 fr
         
         
         
         
1
3
4
2
1
1
3 fr
         
         
         
         
X
1
X
3
4
1
5 fr
         
         
         
         
3
2
1
1
1
4
10 fr
         
         
         
         
X
X
1
3
4
3

12 fr
         
         
         
         
X
4
3
1
2
1
3 fr
         
         
         
         
X
         
         
         
         
3
2
4
3 fr
         
         
         
         
1
3
4
2
1
1
         
         
         
         
2
1
3
4
3 fr
         
         
         
         
X
X
3
2
1
1
5 fr
         
         
         
         
X
X
1
3
4
3
7 fr
         
         
         
         
X
4
3
1
2
1

10 fr
         
         
         
         
X
1
2
3
4
X
10 fr
         
         
         
         
X
1
3
3
3
1
12 fr
         
         
         
         
3
2
1
1
1
4
         
         
         
         
1
3
4
2
1
1
5 fr
         
         
         
         
X
4
3
1
2
1
3 fr
         
         
         
         
X
X
1
2
4
3
         
         
         
         
X
X
3
2
1
1
8 fr
         
         
         
         
X
1
3
3
3
1
10 fr
         
         
         
         
4
3
1
1
1
X

10 fr
         
         
         
         
3
2
1
1
1
4

B

variations
         
         
         
         
X
1
2
3
4
1
6 fr
         
         
         
         
1
3
4
2
1
1
         
         
         
         
X
1
4
4
4
X
         
         
         
         
X
1
X
3
4
1
3 fr
         
         
         
         
3
2
1
1
1
4
8 fr
         
         
         
         
X
X
1
3
4
3

10 fr
         
         
         
         
X
4
3
1
2
1

E

variations
3 fr
         
         
         
         
X
4
3
1
2
1
6 fr
         
         
         
         
X
1
2
3
4
1
         
         
         
         
X
X
1
2
4
3
3 fr
         
         
         
         
X
4
3
1
2
X
8 fr
         
         
         
         
4
3
1
1
1
X
8 fr
         
         
         
         
3
2
1
1
1
4

11 fr
         
         
         
         
1
3
4
2
1
1
No chord
Standard guitar tuning:
E
A
D
G
B
E
No capo
 C C  G  G
e:------------|
B:------------|
G:--5-5-------| <- the first bit can be played 2 ways...
D:--5-5--5--5-|
A:--3-3--5--5-|
E:--3-3--3--3-|
   or:

C C G G F G G C C G G B C

e:----------------|-------------|-------------|------------------| B:----------------|-------------|-------------|------------------| G:----------------|-------------|--5-5--------|--3---------------|x2 D:-2-2--5--5------|---3-/5-5----|--5-5--5-5---|--0----2-2--------| A:-3-3--5--5------|---3-/5-5----|--3-3--5-5---|--1-/--3-3-3h4p3--| E:-3-3--3--3------|---1-/3-3----|--3-3--3-3---|--1-/--3-3--------|

Verse 1

--------
   C C  G  G          F  G G       C C  G G      B   C
e:----------------|-------------|-------------|------------------|
B:----------------|-------------|-------------|------------------|
G:----------------|-------------|--5-5--------|--3---------------|
D:-2-2--5--5------|---3-/5-5----|--5-5--5-5---|--0----2-2--------|
A:-3-3--5--5------|---3-/5-5----|--3-3--5-5---|--1-/--3-3-3h4p3--|
E:-3-3--3--3------|---1-/3-3----|--3-3--3-3---|--1-/--3-3--------|
Hot sun Beating Burning wal- around down my feet king C C G GHot sun F G bGeating down C C G Gburning my feet just Bwalking aCround. Hot sun making me sweat 'Gators getting close, hasn't got me yet

Chorus

-------
CI CcaGn'Gt dance, IF caGn'Gt talk. CThCe GonGly thing about me is the Bway I Cwalk. I can't dance, I can't sing I'm just standing here selling everything.

Verse 2

--------
Blue jeans sitting on the beach, her dog's talking to me, but she's out of reach. She's got a body under that shirt, but all she wants to do is rub my face in the dirt. 'Cause, I can't dance, I can't talk. The only thing about me is the way I walk. No, I can't dance, I can't sing I'm just standing here selling.

Bridge

-------
   B          F         C
e:-----------------------0-----|
B:-----------------------1-----|
G:-----------------------0-----|
D:-0-----------3---------2-----|
A:-1-----------3---------3-----|
E:-1-----------1---------3-----|
checking... place... know And Bchecking everything is in Fplace, you never Cknow who's looking on.

Verse 3

--------
Young punk spilling beer on my shoes, fat guy's talking to me trying to steal my blues. Thick smoke, see her smiling through. I never thought so much could happen just shooting pool. But I can't dance, I can't talk. The only thing about me is the way I walk. I can't dance, I can't sing I'm just standing here selling

Bridge 2

---------
       B           F               C
e:--------------------------------------|
B:--------------------------------------|
G:--------------------------------------|
D:-----0------------3---------------2---|
A:-----1------------3---------------3---|
E:-----1------------1---------------3---|
   B              E          F
e:-----------------------------------------1----------|
B:--------------------------------------------1-------|
G:--------------------------------------2--------2----|
D:-0---------------13----------3------3---------------|
A:-1---------------13----------3----------------------|
E:-1---------------11----------1----------------------|
And Bchecking everything is in Fplace You never Cknow who's looking on B A perfect body E with a perfect Fface, uhan.

End----

Play chorus lots of time with loads of scat vocals...while playing the "intro-riff"... and singing: "I won't dance, please don't ask me..."