George Harrison - Let It Down Acoustic Chords

 
No chord
Standard guitar tuning:
E
A
D
G
B
E
No capo
4--------------------------------------------------------------|
4--------------------------------------------------------------|
4--------------------------------------------------------------|
1--------------------------------------------------------------|
2--------------------------------------------------------------|
0--------------------------------------------------------------|
X . . . x . . x . . x . . . . . X . . . x . . x . . x . . . . . Though you sit in another chaaaaaair I can
3---------------------------4----------------------------------|
3---------------------------4----------------------------------|
5---------------------------4----------------------------------|
5---------------------------1----------------------------------|
3---------------------------2----------------------------------|
3---------------------------0----------------------------------|
X . . . x . . x . . x . . . x . X . . . x . . x . . x . . . . . feeeeeeeeeeeeeeeeeeeeel you heeeeeeeere
4--------------------------------------------------------------|
4--------------------------------------------------------------|
4--------------------------------------------------------------|
1--------------------------------------------------------------|
2--------------------------------------------------------------|
0--------------------------------------------------------------|
x . . . x . . x . . x . . . . . x . . . x . . x . . x . . . . . Looking like I don't caaaaaaare But I
3---------------------------4----------------------------------|
3---------------------------4----------------------------------|
5---------------------------4----------------------------------|
5---------------------------1----------------------------------|
3---------------------------2----------------------------------|
3---------------------------0----------------------------------|
X . . . x . . x . . x . . . x . X . . . x . . x . . x . . . . . dooooooooo, I dooooooooooooooo...
0-------------0-----------------2-------------1----------------|
3-------------1-----------------2-------------1----------------|
2-------------0-----------------3-------------2----------------|
0-------------2-----------------4-------------3----------------|
2-------------3-----------------4-------------3----------------|
0-------------0-----------------2-------------1----------------|
X . . . x . . x . . x . . x x x X . . . x . . x . . x . . . . . Hiding it all behind anything I seee should someone be
0------------------------------|
0------------------------------|
1------------------------------|
2------------------------------|
2------------------------------|
0------------------------------|
X . . . . . . . . . . . . . . . looking at meeeeee
4-------------------4-----------4-------------------9----------|
4-------------------4-----------4-------------------9----------|
4-------------------4-----------4-------------------9----------|
1-------------------1-----------1-------------------7----------|
2-------------------2-----------2-------------------7----------|
0-------------------0-----------0-------------------0----------|
X . . . x . . x . . x . . . . . X . . . x . . x . . x . . . . . While I occupy my mind I can feel you here Love to us is so well timed And I do, I do Wasting away these moments so heavenly Should someone be looking at me

Refrain

0-------------------------------0------------------------------|
0-------------------------------3------------------------------|
1-------------------------------2------------------------------|
2-------------------------------0------------------------------|
2-------------------------------2------------------------------|
0-------------------------------0------------------------------|
X . . . x . . . x . . . x . . . X . . . x . . . x . . . x . . . Let it down Let it down
2---------------1---------------0------------------------------|
2---------------2---------------0------------------------------|
3---------------2---------------1------------------------------|
4---------------3---------------2------------------------------|
4---------------3---------------2------------------------------|
2---------------1---------------0------------------------------|
X . . . x . . . x . . . x . . . X . . . x . . x . . x . . . . . Let your hair hang all around me... Let it down, let it down Let your love flow and astound me Then back to that 444120 444120 444120 999770 bit... Then another verse: As you look so sweetly and divine I can feel you here I see your eyes are busy kissing mine And I do, I do Wondering what it is they're expecting to see Should someone be looking at me Let it down, let it down Let your hair hang all around me Let it down, let it down Let your love flow and astound me At the end there is some strumming: 444120, 444120, 999770, 999770, 444120, 444120, 999770