George Strait - Cowboy Rides Away Chords

 
No chord
Standard guitar tuning:
E
A
D
G
B
E
No capo
e------------------------------------------|
b------------------------------------------|
g-2/4---2---0------------------------------|
d-----5---4---2--4--2-0--------------------|
a------------------------3-----------------|
e------------------------------------------|
e------------------------------------------|
b------------------------------------------|
g-2----0-----------------------------------|
d----4---2--4--0---------------------------|
a-----------------2/3/2--------------------|
e------------------------------------------|
this is how the cowboy ri-ides away