The Getaway Plan - Strings Chords

 
No chord
And guitar tuning
No capo

Verse

E|----------------------------------------|
B|--2----2----2----2----6----6----4----4--|
G|--4----4--------------------------------|
D|--4----4----4----4----8----8----8----8--|
A|------------4----4----7----6----7----6--|
e|--2----1----2----1----------------------|
^^^^ that's the chord sequence, each chord is played seven times

Chorus

E|----------------------------------------|
B|--2----4----6----4----2----4----6----6--|
G|--4----6----8----6----4----6----8----8--|
D|--4----6----8----6----4----6----8----8--|
A|----------------------------------------|
e|----------------------------------------|
(((after second set of choruses then play this)))
E|-----------------|
B|--2----4----6----|
G|--4----6----8----|
D|--4----6----8----|
A|-----------------|
e|-----------------|
play each chord once and let ring i think the part behind the solo is similar to the first four chords of the chorus:
E|---------------------|
B|--2----4----6----4---|
G|--4----6----8----6---|
D|--4----6----8----6---|
A|---------------------|
e|---------------------|
goodluck! it's an awesome song found anything wrong with is? let me know!! cheers