Go Radio - Stay Gone Chords

 
         
         
         
         
         
2
3
1
4 fr
         
         
         
         
         
X
4
3
1
2
1
7 fr
         
         
         
         
         
X
1
4
4
4
X
2 fr
         
         
         
         
         
X
X
1
2
4
3
4 fr
         
         
         
         
         
4
3
1
2
1
7 fr
         
         
         
         
         
X
1
3
3
3
1

9 fr
         
         
         
         
         
4
3
1
1
1
X
9 fr
         
         
         
         
         
3
2
1
1
1
4
12 fr
         
         
         
         
         
1
3
4
2
1
1
4 fr
         
         
         
         
         
X

A

variations
4 fr
         
         
         
         
         
1
3
4
2
1
1
4 fr
         
         
         
         
         
X
X
3
2
1
1
6 fr
         
         
         
         
         
X
X
1
2
4
3
         
         
         
         
         
3
2
1
1
1
4
8 fr
         
         
         
         
         
X
4
3
1
2
1
11 fr
         
         
         
         
         
X
1
2
3
4
X

11 fr
         
         
         
         
         
X
1
3
3
3
1

Cm

variations
4 fr
         
         
         
         
         
X
1
3
4
2
1
9 fr
         
         
         
         
         
1
3
4
1
1
1
         
         
         
         
         
X
4
2
1
X
X
         
         
         
         
         
X
4
3
1
2
X
4 fr
         
         
         
         
         
X
1
X
X
2
1
11 fr
         
         
         
         
         
X
X
1
3
4
2

4 fr
         
         
         
         
         
X
X

Asus2

variations
         
         
         
         
         
X
2
3
2 fr
         
         
         
         
         
4
1
1
1
X
X
4 fr
         
         
         
         
         
X
X
3
1
2
4
7 fr
         
         
         
         
         
X
X
1
3
4
1
9 fr
         
         
         
         
         
X
2
1
1
3
4
9 fr
         
         
         
         
         
X
3
1
1
2
4

12 fr
         
         
         
         
         
X
1
3
4
1
1
         
         
         
         
         
1
1
X
X
X
2 fr
         
         
         
         
         
X
X
1
3
4
X
7 fr
         
         
         
         
         
X
1
3
4
X
X
         
         
         
         
         
X
X
X
7 fr
         
         
         
         
         
X
X
         
         
         
         
         
X
X
1
4
4
4
         
         
         
         
         
1
1
4
4
4
7 fr
         
         
         
         
         
X
1
3
2
4
1
         
         
         
         
         
3
1
2
         
         
         
         
         
2
3
1
4
4 fr
         
         
         
         
         
X
4
3
1
1
1

11 fr
         
         
         
         
         
X
X
4
3
2
1
12 fr
         
         
         
         
         
1
4
2
3
1
1
4 fr
         
         
         
         
         
X

Cm7

variations
4 fr
         
         
         
         
         
X
1
3
1
2
1
9 fr
         
         
         
         
         
1
3
1
1
1
1
4 fr
         
         
         
         
         
X
1
X
2
4
3
         
         
         
         
         
X
2
1
3
1
4
4 fr
         
         
         
         
         
X
1
3
1
2
4
         
         
         
         
         
X
4
2
1

9 fr
         
         
         
         
         
1
3
1
1
4
1
11 fr
         
         
         
         
         
X
X
1
3
2
2

Bsus4

variations
         
         
         
         
         
X
1
3
4
2 fr
         
         
         
         
         
X
1
3
3
4
1
7 fr
         
         
         
         
         
1
3
3
3
1
1
9 fr
         
         
         
         
         
X
X
1
3
4
4
11 fr
         
         
         
         
         
X
3
4
1
2
X
7 fr
         
         
         
         
         
X
X
         
         
         
         
         
X
2
3
1
5 fr
         
         
         
         
         
1
3
4
1
1
1
5 fr
         
         
         
         
         
X
X
1
1
1
8 fr
         
         
         
         
         
X
3
2
4
1
2 fr
         
         
         
         
         
X
1
4
4
4
7 fr
         
         
         
         
         
X
1
3
4
2

9 fr
         
         
         
         
         
X
4
3
1
2
X
12 fr
         
         
         
         
         
X
1
3
4
2
1
5 fr
         
         
         
         
         
X
         
         
         
         
         
X
3
2
3 fr
         
         
         
         
         
X
1
3
2
4
1
3 fr
         
         
         
         
         
X
1
X
3
4
2
8 fr
         
         
         
         
         
1
X
3
4
2
X
7 fr
         
         
         
         
         
X
X
4
3
2
1
8 fr
         
         
         
         
         
1
4
2
3
1
1

10 fr
         
         
         
         
         
X
X
1
3
3
3
12 fr
         
         
         
         
         
X
4
3
1
1
X
No chord
Standard guitar tuning:
E
A
D
G
B
E
No capo
   E       A     Cm    Asus2    E5     E7M   Cm7    Bsus4    Am    C7M-5
|--0--| |--4--| |--4--| |--0--| |--0--| |--0--| |--0--| |--0--| |--0--| |--x--|
|--0--| |--4--| |--5--| |--0--| |--0--| |--0--| |--0--| |--0--| |--1--| |--x--|
|--1--| |--5--| |--6--| |--2--| |--4--| |--4--| |--6--| |--4--| |--2--| |--4--|
|--2--| |--6--| |--6--| |--2--| |--2--| |--1--| |--6--| |--4--| |--2--| |--4--|
|--2--| |--6--| |--4--| |--0--| |--x--| |--x--| |--4--| |--2--| |--0--| |--3--|
|--0--| |--4--| |--x--| |--x--| |--x--| |--x--| |--x--| |--x--| |--x--| |--x--|

Intro

E A Cm Asus2

E5 E7M Cm7   Bsus4   Asus2 Am

Verse

And just in caEse, you're not just Ain time, And I don't Cmever make it out of here alAsus2ive. You'll know I Etried, for the rest of mAy life, to make it Cmup to you. Asus2 If they're alEright, then I'm Ainsane, To ever want to Cmwalk through all of this aAsus2gain. E5 E7M Cm7   Bsus4   Asus2 Am So what's a couple of bottles of wine between me and the fog?

Chorus

You can aCm7ssume that I am hAsus2ere, and on my ownE. You can aCm7ssume I figured oAsus2ut the road too shEort to walk alonBsus4e, Asus2 Bsus4 C7M-5 Cm7 Bsus4 Cm7 E5 And I can't do it by myself, you know I won't. She said, "You're beAsus2tter off in NBsus4ew York, stay gone." E5 E7M Cm7   Bsus4   Asus2 E5 E7M Cm7   Bsus4   Asus2 Am I don't want to stay gone.

Verse

And just in caEse, you're not just Ain time, Know I was nCmever really over this or fiAsus2ne. I was conteEnt to spend the rest of all Amy life To take a final Cmbreath for you. Asus2 To leave a mEemory of drinking anAd desire, A storyCmboard of pictures to depict the Asus2fire. E5 E7M Cm7   Bsus4   Asus2 Could there have been a better motion to claim, a better heart soaked in shame?

Chorus

You can aCm7ssume that I am hAsus2ere, and on my ownE. You can aCm7ssume I figured oAsus2ut the road too shEort to walk alonBsus4e, Asus2 Bsus4 C7M-5 Cm7 Bsus4 Cm7 E5 And I can't do it by myself, you know I won't. She said, "You're beAsus2tter off in BBsus4oston, stay gone." E5 E7M Cm7   Bsus4   Asus2 E5 E7M Cm7   Bsus4   Asus2 Am Oh but I don't want to stay gone too long.

Bridge

(He barely hits the notes here and also has people talking loudly over him)
e|----------------------------------------|
B|----------------------------------------|
G|-------------9~-------------------------|
D|-------------9~-------------------2~----|
A|-------------7~-------------------0~----|
E|----------------------------------------|
And just in case, you found out in time,
e|-------------------------------------------------|
B|-------------------------------------------------|
G|-------------------------------------------------|
D|----------4~-----------------------------4~------|
A|----------2~-----------------------------3~------|
E|-------------------------------------------------|
I've been out here all alone and I've been blind.
e|----------------------------------------------------------------|
B|----------------------------------------------------------------|
G|----------------------------------------------------------------|
D|-----2~--------------------------2~---------------------4~------|
A|-----2~--------------------------0~---------------------2~------|
E|-----0~---------------------------------------------------------|
I've thrown together a couple of songs, maybe you'd sing along. Chorus/Outro- You can Cm7assume that I am Asus2here, and on my owEn. You can aCm7ssume I figured oAsus2ut the road too shEort to walk alonBsus4e, Asus2 Bsus4 C7M-5 Cm7 Bsus4 Cm7 E5 And I can't do it by myself, you know I won't. Asus2 Bsus4 C7M-5 Cm7 Bsus4 Cm7 E5 She said, "You're better off, you're better off, stay gone." Asus2 Bsus4 C7M-5 Cm7 Bsus4 Cm7 E5 She said, "Don't come back to Florida, babe, stay gone." Said, "We don't Asus2need you back in Bsus4Florida, stay gone." E5 E7M Cm7   Bsus4   Asus2 E5 E7M Cm7   Bsus4   Asus2 E Stay gone. Chorus/Outro- Guitar 2 You can assume that I am here and on my own... e|5-5--4~---5-5--4~---5-5--4~---2x-0x-7-7---------|
B|5-5--5~---5-5--5~---5-5--5~---5x-5x-5-5---------|
G|4-4--4~---4-4--4~---4-4--4~---4x-4x-4-4---------|
D|------------------------------------------------|
A|------------------------------------------------|
E|------------------------------------------------|
You can assume I've figured out the road too short to walk alone... e|5-5--4~---5-5--4~---5-5--4~---2x-0x--2x-2x--0---|
B|5-5--5~---5-5--5~---5-5--5~---5x-5x--5x-5x--5---|
G|4-4--4~---4-4--4~---4-4--4~---4x-4x--4x-4x--2---|
D|------------------------------------------------|
A|------------------------------------------------|
E|------------------------------------------------|
And I can't do it by myself, you know I won't... e|7-7--7~---7-7--7~---5-5--4~---0x-2x-7-7---------|
B|5-5--5~---5-5--5~---5-5--5~---5x-5x-5-5---------|
G|4-4--4~---4-4--4~---4-4--4~---4x-4x-4-4---------|
D|------------------------------------------------|
A|------------------------------------------------|
E|------------------------------------------------|
She said you're better off, you're better off, stay gone... e|2-0--7~---7-7--7~---7-7--7~---4x-4x-4x-0x-2x----|
B|5-5--5~---5-5--5~---5-5--5~---5x-5x-5x-5x-5x----|
G|4-4--4~---4-4--4~---4-4--4~---4x-4x-4x-4x-4x----|
D|------------------------------------------------|
A|------------------------------------------------|
E|------------------------------------------------|
She said don't come back... e|7-7--7~---7-7--7~---7-7--7~---4x-4x-2x-0x-2x----|
B|5-5--5~---5-5--5~---5-5--5~---5x-5x-5x-5x-5x----|
G|4-4--4~---4-4--4~---4-4--4~---4x-4x-4x-4x-4x----|
D|------------------------------------------------|
A|------------------------------------------------|
E|------------------------------------------------|
Said we don't need you back in Florida, stay gone...
e|7-7--7--7--2x-2x------4x-4x-2-0h2-5-2-5-4---5-5--5-5-5-5--5-5-5-5---|
B|5-5--5--5--5x-5x------5x-5x-5-5---5-5-5-5---5-5--5-5-5-5--5-5-5-5---|
G|4-4--4--4--4x-4x------4x-4x-4-4---4-4-4-4---4-4--4^4v4^4--4-4-4-4---|
D|--------------------------------------------------------------------|
A|--------------------------------------------------------------------|
E|--------------------------------------------------------------------|
Stay gone... e|4x-4x-2-0h2-5-2-5-4---5-5-5-5-5~---|
B|5x-5x-5-5---5-5-5-5---5-5-5-5-5~---|
G|4x-4x-4-4---4-4-4-4---4-4-4-4-4~---|
D|-----------------------------------|
A|-----------------------------------|
E|-----------------------------------|
| PM palm mute | / slide up | \ slide down | h hammer-on | p pull-off | b bend | * substitute | x mute note | + harmonic