Gob - About My Summer Chords

 

C

variations
4 fr
         
         
         
         
X
1
2
3
4
1
         
         
         
         
X
4
3
1
2
1
4 fr
         
         
         
         
X
1
4
4
4
X
6 fr
         
         
         
         
4
3
1
1
1
X
6 fr
         
         
         
         
3
2
1
1
1
4
9 fr
         
         
         
         
1
3
4
2
1
1

11 fr
         
         
         
         
X
X
1
3
4
3

Bm

variations
         
         
         
         
X
1
3
4
2
1
6 fr
         
         
         
         
1
3
4
1
1
1
         
         
         
         
X
1
3
4
2
X
6 fr
         
         
         
         
X
X
3
1
1
1
8 fr
         
         
         
         
X
X
1
3
4
2
10 fr
         
         
         
         
X
4
3
1
2
X
7 fr
         
         
         
         
1
3
4
2
1
1
         
         
         
         
X
2
1
X
3
         
         
         
         
X
1
4
4
4
X
         
         
         
         
X
1
3
3
3
1
4 fr
         
         
         
         
4
3
1
1
1
X
4 fr
         
         
         
         
3
2
1
1
1
4

9 fr
         
         
         
         
X
X
1
3
4
3
11 fr
         
         
         
         
X
4
3
1
2
1

F

variations
         
         
         
         
1
3
4
2
1
1
         
         
         
         
X
X
3
2
1
1
6 fr
         
         
         
         
X
4
3
1
2
1
4 fr
         
         
         
         
X
X
1
2
4
3
9 fr
         
         
         
         
X
1
3
3
3
1
11 fr
         
         
         
         
4
3
1
1
1
X

11 fr
         
         
         
         
3
2
1
1
1
4

A

variations
4 fr
         
         
         
         
1
3
4
2
1
1
4 fr
         
         
         
         
X
X
3
2
1
1
6 fr
         
         
         
         
X
X
1
2
4
3
         
         
         
         
3
2
1
1
1
4
8 fr
         
         
         
         
X
4
3
1
2
1
11 fr
         
         
         
         
X
1
2
3
4
X

11 fr
         
         
         
         
X
1
3
3
3
1
         
         
         
         
X
1
2
3
5 fr
         
         
         
         
1
3
4
2
1
1
2 fr
         
         
         
         
X
1
1
1
4
         
         
         
         
X
X
1
2
2 fr
         
         
         
         
3
2
1
1
1
4
7 fr
         
         
         
         
X
X
1
3
4
3

9 fr
         
         
         
         
X
4
3
1
2
1
12 fr
         
         
         
         
X
1
3
3
3
1

Em

variations
6 fr
         
         
         
         
X
1
3
4
2
1
         
         
         
         
X
X
1
3
4
2
3 fr
         
         
         
         
X
4
2
1
X
X
6 fr
         
         
         
         
X
1
X
X
2
1
3 fr
         
         
         
         
X
4
3
1
2
X
11 fr
         
         
         
         
1
3
4
1
1
1
         
         
         
         
1
3
4
1
1
1
         
         
         
         
X
X
3
1
1
1
3 fr
         
         
         
         
X
X
1
3
4
2
8 fr
         
         
         
         
X
1
3
4
2
1
5 fr
         
         
         
         
X
4
3
1
2
X
         
         
         
         
X
3
2
1
3 fr
         
         
         
         
X
1
2
3
4
1
8 fr
         
         
         
         
1
3
4
2
1
1
3 fr
         
         
         
         
X
1
X
3
4
1
5 fr
         
         
         
         
3
2
1
1
1
4
10 fr
         
         
         
         
X
X
1
3
4
3

12 fr
         
         
         
         
X
4
3
1
2
1
3 fr
         
         
         
         
X
No chord
Standard guitar tuning:
E
A
D
G
B
E
No capo
Key: C Chords used:

Intro

Guitar 2:
e|-----6-------6---|
B|-6-7---7-6-7---7-|
G|-----------------|
D|-----------------| x4
A|-----------------|
E|-----------------|
Then Bm--B-F-A--A--A-Em-F-

Verse 1

I Bmtook a walk in the park the bluest Bblue in Fthe sAky Until my legs gave out I sat on a Abridge Emand Fdied And when Bmthey covered my eyes there wasn't a Bsoul Fto Asave And then they started to laugh it had to be Adone Ema---Fgain
Guitar 2: in "again", tr means tremolo effects
e|-4-tr--|
B|-------|
G|-------|
D|-------|
A|-------|
E|-------|

Chorus 1

I Bmknow it's the Bprice FI Apay You can't feel a heat that's 200 Amiles Ema---Fway I'm aBmlone it was my Bchoice Fto sAtay And stare in an empty mirror at AyesEmter-FmdayF

Interlude

F--

Guitar 2:
e|----------6-|
B|-9--7--6----|
G|------------|
D|------------|
A|------------|
E|------------|

Verse 2

I went Bminto a void you were the Bvoid Fa Amaze If I could keep to myself it keeps Ame aEmlive unFtouched I wear a Bmpermanent frown nervous aBbout Fmy Afate If it's a million to one I can't hold you Adown Emthat Fway
Guitar 2: in "void a maze"
e|-------13----|
B|----14----14-|
G|-13----------|
D|-------------|
A|-------------|
E|-------------|
in i wear a permanent frown"
e|---2-1---2-1--2-1--------------2-1-------------|
B|-----------------------------------------------|
G|-3-----3-----1----1-3-1---1--1-----1-3-1---1---|
D|------------------------4----------------4---4-|
A|-----------------------------------------------|
E|-----------------------------------------------|

Chorus 2

I Bmknow it's the Bprice FI Apay You can't feel a heat that's 200 Amiles Ema---Fway I'm aBmlone it was my Bchoice Fto sAtay Here an abandoned minefield Athat Emyou FmmadeF

Interlude

Bm---- x4

F Fm Em F Fm

Tom:

Bm

e|---------------------------------| B|---------------------------------| G|---------------------------------| D|-------------------------4---4---| x8 A|---1---1---1---1---1---1---1---1-| E|-4---4---4---4---4---4-----------|
Theo: Bm x2
e|---------------------------------------------------------------------------|
B|-6-7-6-7-6-7-6-7-6-7-6-7-6-7-6-7-4-6-4-6-4-6-4-6-4-6-4-6-4-6-4-6-----------|
G|---------------------------------------------------------------------------|
D|---------------------------------------------------------------------------|
A|---------------------------------------------------------------------------|
E|---------------------------------------------------------------------------|
e|-8---8---8---8---8---8---8---8---9---9---9---9---9---9---9---9---|
B|-----------------------------------------------------------------|
G|---8---8---8---8---8---8---8---8---------------------------------|
D|-----------------------------------8---8---8---8---8---8---8---8-|
A|-----------------------------------------------------------------|
E|-----------------------------------------------------------------|

C

C

Outro

Tom:

Bm

e|---------------------------------| B|---------------------------------| G|---------------------------------| D|-------------------------4---4---| x12 A|---1---1---1---1---1---1---1---1-| E|-4---4---4---4---4---4-----------|
Theo: Bm x2
e|---------------------------------------------------------------------------|
B|-6-7-6-7-6-7-6-7-6-7-6-7-6-7-6-7-4-6-4-6-4-6-4-6-4-6-4-6-4-6-4-6-----------|
G|---------------------------------------------------------------------------|
D|---------------------------------------------------------------------------|
A|---------------------------------------------------------------------------|
E|---------------------------------------------------------------------------|
e|-8---8---8---8---8---8---8---8---9---9---9---9---9---9---9---9---|
B|-----------------------------------------------------------------|
G|---8---8---8---8---8---8---8---8---------------------------------|
D|-----------------------------------8---8---8---8---8---8---8---8-|
A|-----------------------------------------------------------------|
E|-----------------------------------------------------------------|
e|---------------------------------------------------------------------------|
B|-6-7-6-7-6-7-6-7-6-7-6-7-6-7-6-7-4-6-4-6-4-6-4-6-4-6-4-6-4-6-4-6-----------|
G|---------------------------------------------------------------------------|
D|---------------------------------------------------------------------------|
A|---------------------------------------------------------------------------|
E|---------------------------------------------------------------------------|
e|-8---8---8---8---8---8---8---8---9---9---9---9---9---9---9---9---|
B|-----------------------------------------------------------------|
G|---8---8---8---8---8---8---8---8---------------------------------|
D|-----------------------------------8---8---8---8---8---8---8---8-|
A|-----------------------------------------------------------------|
E|-----------------------------------------------------------------|
e|---------------------------------------------------------------------------|
B|-6-7-6-7-6-7-6-7-6-7-6-7-6-7-6-7-4-6-4-6-4-6-4-6-4-6-4-6-4-6-4-6-----------|
G|---------------------------------------------------------------------------|
D|---------------------------------------------------------------------------|
A|---------------------------------------------------------------------------|
E|---------------------------------------------------------------------------|
e|-----------------------------------------------------------------|
B|-2-4-2-4-2-4-2-4-2-4-2-4-2-4-2-4---------------------------------|
G|---------------------------------3-5-3-5-3-5-3-5-3-5-3-5-3-5-3-5-|
D|-----------------------------------------------------------------|
A|-----------------------------------------------------------------|
E|-----------------------------------------------------------------|
e|---------------------------------------------------------------------------|
B|-6-7-6-7-6-7-6-7-6-7-6-7-6-7-6-7-4-6-4-6-4-6-4-6-4-6-4-6-4-6-4-6-----------|
G|---------------------------------------------------------------------------|
D|---------------------------------------------------------------------------|
A|---------------------------------------------------------------------------|
E|---------------------------------------------------------------------------|
e|-----------------------------------------------------------------|
B|-2-4-2-4-2-4-2-4-2-4-2-4-2-4-2-4---------------------------------|
G|---------------------------------3-5-3-5-3-5-3-5-3-5-3-5-3-5-3-5-|
D|-----------------------------------------------------------------|
A|-----------------------------------------------------------------|
E|-----------------------------------------------------------------|