Gob - Dead End Love Chords

 

E

variations
3 fr
         
         
         
         
X
4
3
1
2
1
6 fr
         
         
         
         
X
1
2
3
4
1
         
         
         
         
X
X
1
2
4
3
3 fr
         
         
         
         
X
4
3
1
2
X
8 fr
         
         
         
         
4
3
1
1
1
X
8 fr
         
         
         
         
3
2
1
1
1
4

11 fr
         
         
         
         
1
3
4
2
1
1

F

variations
         
         
         
         
1
3
4
2
1
1
         
         
         
         
X
X
3
2
1
1
6 fr
         
         
         
         
X
4
3
1
2
1
4 fr
         
         
         
         
X
X
1
2
4
3
9 fr
         
         
         
         
X
1
3
3
3
1
11 fr
         
         
         
         
4
3
1
1
1
X

11 fr
         
         
         
         
3
2
1
1
1
4

C

variations
4 fr
         
         
         
         
X
1
2
3
4
1
         
         
         
         
X
4
3
1
2
1
4 fr
         
         
         
         
X
1
4
4
4
X
6 fr
         
         
         
         
4
3
1
1
1
X
6 fr
         
         
         
         
3
2
1
1
1
4
9 fr
         
         
         
         
1
3
4
2
1
1

11 fr
         
         
         
         
X
X
1
3
4
3
7 fr
         
         
         
         
1
3
4
2
1
1
         
         
         
         
X
2
1
X
3
         
         
         
         
X
1
4
4
4
X
         
         
         
         
X
1
3
3
3
1
4 fr
         
         
         
         
4
3
1
1
1
X
4 fr
         
         
         
         
3
2
1
1
1
4

9 fr
         
         
         
         
X
X
1
3
4
3
11 fr
         
         
         
         
X
4
3
1
2
1

Em

variations
6 fr
         
         
         
         
X
1
3
4
2
1
         
         
         
         
X
X
1
3
4
2
3 fr
         
         
         
         
X
4
2
1
X
X
6 fr
         
         
         
         
X
1
X
X
2
1
3 fr
         
         
         
         
X
4
3
1
2
X
11 fr
         
         
         
         
1
3
4
1
1
1

Am

variations
4 fr
         
         
         
         
1
3
4
1
1
1
6 fr
         
         
         
         
X
X
1
3
4
2
4 fr
         
         
         
         
X
X
3
1
1
1
         
         
         
         
4
2
1
X
X
X
8 fr
         
         
         
         
X
4
3
1
2
X
11 fr
         
         
         
         
X
1
3
4
2
1

B

variations
         
         
         
         
X
1
2
3
4
1
6 fr
         
         
         
         
1
3
4
2
1
1
         
         
         
         
X
1
4
4
4
X
         
         
         
         
X
1
X
3
4
1
3 fr
         
         
         
         
3
2
1
1
1
4
8 fr
         
         
         
         
X
X
1
3
4
3

10 fr
         
         
         
         
X
4
3
1
2
1
         
         
         
         
X
3
2
1
3 fr
         
         
         
         
X
1
2
3
4
1
8 fr
         
         
         
         
1
3
4
2
1
1
3 fr
         
         
         
         
X
1
X
3
4
1
5 fr
         
         
         
         
3
2
1
1
1
4
10 fr
         
         
         
         
X
X
1
3
4
3

12 fr
         
         
         
         
X
4
3
1
2
1
3 fr
         
         
         
         
X
No chord
Standard guitar tuning:
E
A
D
G
B
E
No capo
Key: E or F Chords used:

Intro

E--C--B--C-- x2

Guitar 2: at 2nd enter of intro

E

e|-------------------------------------------------| B|-------------------------------------------------| G|-12-12-12-12-12-12-12-12-12-12-12-12-15-15-15-15-| D|--x--x--x--x--x--x--x--x--x--x--x--x--x--x--x--x-| A|-10-10-10-10-10-10-10-10-10-10-10-10-13-13-13-13-| E|-------------------------------------------------|
                        C
e|-------------------------------------------------|
B|-------------------------------------------------|
G|-10-10-10-10-10-10-10-10-10-10-10-10-13-13-13-13-|
D|--x--x--x--x--x--x--x--x--x--x--x--x--x--x--x--x-|
A|--8--8--8--8--8--8--8--8--8--8--8--8-11-11-11-11-|
E|-------------------------------------------------|
                   B
e|-------------------------------------|
B|-------------------------------------|
G|-8-8-8-8-8-8-8-8-8-8-8-8-11-11-11-11-|
D|-x-x-x-x-x-x-x-x-x-x-x-x--x--x--x--x-|
A|-6-6-6-6-6-6-6-6-6-6-6-6--9--9--9--9-|
E|-------------------------------------|
                     C
e|-----------------------------------------|
B|-----------------------------------------|
G|-10-10-10-10-10-10-10-10-6-6-6-6-6-6-6-6-|
D|--x--x--x--x--x--x--x--x-x-x-x-x-x-x-x-x-|
A|--8--8--8--8--8--8--8--8-4-4-4-4-4-4-4-4-|
E|-----------------------------------------|

Verse 1

E While you skip the Cnight, I stay up till B5 We may meet aCgain when semester Eends So with all my Cmight, I sit down to Bwrite Here lies precious Cpen failure to the end

Chorus 1

Em B And while you were gone I let my Fsores out Cbleeding Bo-Ampen Em B I was cold I was sold I met a Froad sign Cleading BnoAmwhere Em B Doublecrossed and erased I let a Fmonster Crun me Bo-Amver Em B I was lost don't know where there was a Froad-sign Cleading BnoAmwhere

Interlude

B E B E B E

Verse 2

E When I got hypnoCtized recounted only Blies Only fooled myCself kept unsafe inE hell I can't blame the sCcarecrows I get sad for Bnothing Introduce me Cto something Eb-- that can move

Chorus 2

Em B And while you were gone I let my Fsores out Cbleeding Bo-Ampen Em B I was cold I was sold I met a Froad sign Cleading BnoAmwhere Em B Doublecrossed and erased I let a Fmonster Crun me Bo-Amver Em B I was lost don't know where there was a Froad-sign Cleading Fno-Bwhere

Interlude

Eb-- Come on!!!

Guitar solo

Ebm-B--F#-C#-B-G#m-------------------------------------------| Ebm-B--F#-C#-F#-B---------------------------------------------------------| Ebm-B--F#-C#-G#m----------------------------------------------------------|

B-E-B-E-B-E---| x2

Guitar 2: Solo
     Em               B                  F

B Am

e|---------|-------------------------|---------|---------|---------|-2-2-2-2-| B|-4-4-4-2-|-4-4-4-2-4-4-4-4-4-4-4-4-|---------|-4-4-4-4-|-------0-|---------| G|---------|-------------------------|-3-3-3-3-|---------|-1-1-1---|---------| D|---------|-------------------------|---------|---------|---------|---------| A|---------|-------------------------|---------|---------|---------|---------| E|---------|-------------------------|---------|---------|---------|---------|
   Em       B          F        C      F     B
e|-----|------------|---------|--------|-------|----|
B|-----|------------|-6h7p6---|------6-|-------|----|
G|-8---|-10--11--13-|-------6-|-8--8---|-8-6---|----|
D|-x---|--x---x--x--|---------|--------|-----9-|--8-|
A|-6---|--8---9--11-|---------|--------|-------|----|
E|-----|------------|---------|--------|-------|----|
      Em                        B
e|-11-11-11-11-|-------------------------------------|
B|-------------|-11-11-11-11-------------------------|
G|-------------|-------------11-11-11-11-------------|
D|-------------|-------------------------11-11-11-11-|
A|-------------|-------------------------------------|
E|-------------|-------------------------------------|
       F            C                 Am
e|-11-11-11-11-|-18-18-18-18-|-14-14-14-14-------------|
B|-------------|-------------|-------------14-14-14-14-|
G|-------------|-------------|-------------------------|
D|-------------|-------------|-------------------------|
A|-------------|-------------|-------------------------|
E|-------------|-------------|-------------------------|
     B      E      B      E    B    E
e|-------|-------|-------|-------|-----|-----|
B|-------|-------|-------|-------|-----|-----|
G|-------|-8-8-8-|-------|-8-8-8-|-----|-8-8-|
D|-8-8-8-|-8-8-8-|-8-8-8-|-8-8-8-|-8-8-|-8-8-| x2
A|-8-8-8-|-6-6-6-|-8-8-8-|-6-6-6-|-8-8-|-6-6-|
E|-6-6-6-|-------|-6-6-6-|-------|-6-6-|-----|

C

Outro

Froad-sign Cleading Bno-Amwhere Froad-sign Cleading Bno-AmwhereB