Gob - Oh Ellin Chords

 
         
         
         
         
X
3
2
1
3 fr
         
         
         
         
X
1
2
3
4
1
8 fr
         
         
         
         
1
3
4
2
1
1
3 fr
         
         
         
         
X
1
X
3
4
1
5 fr
         
         
         
         
3
2
1
1
1
4
10 fr
         
         
         
         
X
X
1
3
4
3

12 fr
         
         
         
         
X
4
3
1
2
1
3 fr
         
         
         
         
X
         
         
         
         
X
X
1
3
2
2 fr
         
         
         
         
X
4
3
1
2
1
5 fr
         
         
         
         
X
1
2
3
4
1
5 fr
         
         
         
         
X
1
4
4
4
X
7 fr
         
         
         
         
4
3
1
1
1
X
7 fr
         
         
         
         
3
2
1
1
1
4

10 fr
         
         
         
         
1
3
4
2
1
1
12 fr
         
         
         
         
X
X
1
3
4
3
5 fr
         
         
         
         
X
X
         
         
         
         
X
2
3
1
5 fr
         
         
         
         
1
3
4
1
1
1
5 fr
         
         
         
         
X
X
1
1
1
8 fr
         
         
         
         
X
3
2
4
1
2 fr
         
         
         
         
X
1
4
4
4
7 fr
         
         
         
         
X
1
3
4
2

9 fr
         
         
         
         
X
4
3
1
2
X
12 fr
         
         
         
         
X
1
3
4
2
1
5 fr
         
         
         
         
X
         
         
         
         
1
3
4
2
1
1
5 fr
         
         
         
         
X
4
3
1
2
1
3 fr
         
         
         
         
X
X
1
2
4
3
         
         
         
         
X
X
3
2
1
1
8 fr
         
         
         
         
X
1
3
3
3
1
10 fr
         
         
         
         
4
3
1
1
1
X

10 fr
         
         
         
         
3
2
1
1
1
4
         
         
         
         
3
2
4
3 fr
         
         
         
         
1
3
4
2
1
1
         
         
         
         
2
1
3
4
3 fr
         
         
         
         
X
X
3
2
1
1
5 fr
         
         
         
         
X
X
1
3
4
3
7 fr
         
         
         
         
X
4
3
1
2
1

10 fr
         
         
         
         
X
1
2
3
4
X
10 fr
         
         
         
         
X
1
3
3
3
1
12 fr
         
         
         
         
3
2
1
1
1
4
         
         
         
         
X
1
3
4
2
1
7 fr
         
         
         
         
1
3
4
1
1
1
         
         
         
         
X
1
3
4
2
X
7 fr
         
         
         
         
X
X
3
1
1
1
9 fr
         
         
         
         
X
X
1
3
4
2
11 fr
         
         
         
         
X
4
3
1
2
X
         
         
         
         
X
1
2
3
5 fr
         
         
         
         
1
3
4
2
1
1
2 fr
         
         
         
         
X
1
1
1
4
         
         
         
         
X
X
1
2
2 fr
         
         
         
         
3
2
1
1
1
4
7 fr
         
         
         
         
X
X
1
3
4
3

9 fr
         
         
         
         
X
4
3
1
2
1
12 fr
         
         
         
         
X
1
3
3
3
1
No chord
Standard guitar tuning:
E
A
D
G
B
E
No capo
Key: C then D Chords used:

Intro

Amoh! Ellin Fwhat can i do?C G Amoh! Ellin Fwhat can i do?C G

Chorus 1

Amoh! Ellin Fwhat can i do? C there is nothing aGside from you Amoh! Ellin Fwhat can i do? C there is nothing aGside from you

Interlude

Am--
Guitar 2:
e|-----------10-8----10-8----|
B|----------------10------10-|
G|---------------------------|
D|-7-7-7-7-7-----------------|
A|-7-7-7-7-7-----------------|
E|-5-5-5-5-5-----------------|

Verse 1

Fi Ghate Fto Gsay Fi'm sGtarting Fa-Ggain to tryG Am to get you off of my Fmind Fi Gmust FadGmit Fit's Gso hard Fto Gdo oh Ellin!G Am with no you by my Fside Fi Ghave Fthe Gchance Fto Gland on Fmy Gown two feetG Am and keep my chin off the Fground Fbut Gnow Fyou're Ggone Fi Gbet myself FupG about itG Am it sucks without you aFroundAm it sucks when you're not aGround

Chorus 2

AmOh Ellin Fwhat can i do?C there is nothing aGside from you Amoh! Ellin Fwhat can i lose? Cthere's nothing aGside on you Am oh ohF oh ohC oh ohG oh oh
Guitar 2: at "oh oh"
e|------------|
B|------------|
G|-9--9--9--9-|
D|-x--x--x--x-|
A|-7--7--7--7-|
E|------------|

Verse 2

iG trace your steps but i get lost i betAm i'ts what you had in Fmind Fand Gcan't Fyou Gsee Fthat Gall is Fnot Gwell oh! EllinG Am not since you left me beFhind Fi Gwaste Fa-Gway Fit's Gmiserable FhereG it's stupidG Am to even try to preFtend beFcause Gwhen Fyou sGlip Fmy Gmind i sFtartG to panicG Am i'm scared to lose you aFgain Ami'm scared i'll lose you aFgain

Chorus 3

AmOh Ellin Fwhat can i do?C there is nothing aGside from you Amoh! Ellin Fwhat can i lose? Cthere's nothing aGside on you AmOh Ellin Fwhat can i do?C there is nothing aGside from you Amoh! Ellin Fwhat can i lose? Cthere's nothing aGside on you

Guitar solo

Modulate from C to D Bm--G--Bm--D-G-A- x3, Bm--G--A--F---- Guitar 2: Solo
       Bm            G            Bm            D

G A

e|--------------|-------9-|-9--9-----------|---------|----|------| B|--------10-12-|-10-12---|-------12-10----|---------|----|------| G|-11--11-------|---------|-------------11-|-11-10-9-|----|----9-| D|--------------|---------|----------------|---------|-12-|-12---| A|--------------|---------|----------------|---------|----|------| E|--------------|---------|----------------|---------|----|------|
           Bm                   D                   Bm
e|--------------------|-10---------------|-14--14--14-13-12-10-|
B|----10-11-12--10-12-|-----12p10h12--12-|---------------------|
G|-11-----------------|------------------|---------------------|
D|--------------------|------------------|---------------------|
A|--------------------|------------------|---------------------|
E|--------------------|------------------|---------------------|
      G          A               Bm                    G
e|----------|---------|----------------------|--------------------|
B|-10/12----|-10/12---|-12/14------12/14-----|-15-14-12-----12-14-|
G|----------|---------|----------------------|----------14--------|
D|--------9-|-------9-|--------11---------11-|--------------------|
A|----------|---------|----------------------|--------------------|
E|----------|---------|----------------------|--------------------|
          A                                  F
e|--------------------|----------------------------------------------|
B|-15-14-12--------12-|-13p12h13p12h13p12h13p12h13p12h13p12h13p12p10-|
G|----------14--14----|----------------------------------------------|
D|--------------------|----------------------------------------------|
A|--------------------|----------------------------------------------|
E|--------------------|----------------------------------------------|

Interlude

Am--F--C--G-- x2

Chorus 4

Amoh! Ellin Fwhat can i do? C there is nothing aGside from you Amoh! Ellin Fwhat can i do? Cthere is nothing aGside from youAm F C there is nothing aGside from youAm F C there is nothing aGside from you
Guitar 2: "aside from you"
e|---------------------------|
B|---------------------------|

G|-5-5-5-5-5-5-5-5--|

D|-x-x-x-x-x-x-x-x--|

A|-3-3-3-3-3-3-3-3--|

E|---------------------------|
Gutiar 3: "aside from you"
e|---------------------------|
B|---------------------------|

G|-9-9-9-9-9-9-9-9--|

D|-x-x-x-x-x-x-x-x--|

A|-7-7-7-7-7-7-7-7--|

E|---------------------------|

Chorus 5

AmOh Ellin Fwhat can i do?C there is nothing aGside from you Amoh! Ellin Fwhat can i lose? C there's nothing aGside on you AmOh Ellin Fwhat can i do?C there is nothing aGside from you Amoh! Ellin Fwhat can i lose? Cthere's nothing aGside from you Amoh! Ellin Fwhat can i do? Cthere's nothing aGside from you Amoh! Ellin Fwhat can i do? Cthere's nothing aGside froAmm you