Gob - Ok Chords

 

F

variations
         
         
         
         
1
3
4
2
1
1
         
         
         
         
X
X
3
2
1
1
6 fr
         
         
         
         
X
4
3
1
2
1
4 fr
         
         
         
         
X
X
1
2
4
3
9 fr
         
         
         
         
X
1
3
3
3
1
11 fr
         
         
         
         
4
3
1
1
1
X

11 fr
         
         
         
         
3
2
1
1
1
4

C

variations
4 fr
         
         
         
         
X
1
2
3
4
1
         
         
         
         
X
4
3
1
2
1
4 fr
         
         
         
         
X
1
4
4
4
X
6 fr
         
         
         
         
4
3
1
1
1
X
6 fr
         
         
         
         
3
2
1
1
1
4
9 fr
         
         
         
         
1
3
4
2
1
1

11 fr
         
         
         
         
X
X
1
3
4
3
         
         
         
         
1
3
4
2
1
1
5 fr
         
         
         
         
X
4
3
1
2
1
3 fr
         
         
         
         
X
X
1
2
4
3
         
         
         
         
X
X
3
2
1
1
8 fr
         
         
         
         
X
1
3
3
3
1
10 fr
         
         
         
         
4
3
1
1
1
X

10 fr
         
         
         
         
3
2
1
1
1
4

Em

variations
6 fr
         
         
         
         
X
1
3
4
2
1
         
         
         
         
X
X
1
3
4
2
3 fr
         
         
         
         
X
4
2
1
X
X
6 fr
         
         
         
         
X
1
X
X
2
1
3 fr
         
         
         
         
X
4
3
1
2
X
11 fr
         
         
         
         
1
3
4
1
1
1
7 fr
         
         
         
         
1
3
4
2
1
1
         
         
         
         
X
2
1
X
3
         
         
         
         
X
1
4
4
4
X
         
         
         
         
X
1
3
3
3
1
4 fr
         
         
         
         
4
3
1
1
1
X
4 fr
         
         
         
         
3
2
1
1
1
4

9 fr
         
         
         
         
X
X
1
3
4
3
11 fr
         
         
         
         
X
4
3
1
2
1

Am

variations
4 fr
         
         
         
         
1
3
4
1
1
1
6 fr
         
         
         
         
X
X
1
3
4
2
4 fr
         
         
         
         
X
X
3
1
1
1
         
         
         
         
4
2
1
X
X
X
8 fr
         
         
         
         
X
4
3
1
2
X
11 fr
         
         
         
         
X
1
3
4
2
1
         
         
         
         
2
3
1
4 fr
         
         
         
         
X
4
3
1
2
1
7 fr
         
         
         
         
X
1
4
4
4
X
2 fr
         
         
         
         
X
X
1
2
4
3
4 fr
         
         
         
         
4
3
1
2
1
7 fr
         
         
         
         
X
1
3
3
3
1

9 fr
         
         
         
         
4
3
1
1
1
X
9 fr
         
         
         
         
3
2
1
1
1
4
12 fr
         
         
         
         
1
3
4
2
1
1
4 fr
         
         
         
         
X
No chord
Standard guitar tuning:
E
A
D
G
B
E
No capo
Key: F Chords used:

C/F - 143xxx

Intro

Part 1:
Craig: Bass Solo

Em

G|------------------| D|------1-1-1-4-1-1-| A|-4-6--------------| x8 E|------------------|
Tom: x means palm mute, ! means artifical harmonics

Em F

e|------------|-----14!-|-----|---| B|------------|---------|-----|---| G|-8--------8-|-8-------|-----|---| D|-8--------8-|-8-------|-4-4-|-3-| A|-6--6-6-6-6-|-6-------|-4-4-|-4-| E|------------|---------|-2-2-|-1-|
x x x x2 Part 2: Distorted Part
Craig:

Em B F C F

G|-------|-----------|--------------------|---| D|-------|-----------|--------------------|---| A|-6-6-6-|-2-2-2-2-2-|--------------------|---| x3 E|-------|-----------|-2--2-2-2-2-2--2--2-|-1-|
    Em        B               F          Am
G|-------|-----------|--------------------|---|
D|-------|-----------|--------------------|---|
A|-6-6-6-|-2-2-2-2-2-|--------------------|---|
E|-------|-----------|-2--2-2-2-2-2--2--2-|-4-|
Tom:

Em B F C F

e|-------|-----------|--------------------|---| B|-------|-----------|--------------------|---| G|-8-8-8-|-4-4-4-4-4-|--------------------|---| D|-8-8-8-|-4-4-4-4-4-|-4--4-4-4-4-4--4--4-|-3-| A|-6-6-6-|-2-2-2-2-2-|-4--4-4-4-4-4--4--4-|-4-| x3 E|-------|-----------|-2--2-2-2-2-2--2--2-|-1-|
x x x x x x x
    Em        B               F          Am
e|-------|-----------|--------------------|---|
B|-------|-----------|--------------------|---|
G|-8-8-8-|-4-4-4-4-4-|--------------------|---|
D|-8-8-8-|-4-4-4-4-4-|-4--4-4-4-4-4--4--4-|-6-|
A|-6-6-6-|-2-2-2-2-2-|-4--4-4-4-4-4--4--4-|-6-|
E|-------|-----------|-2--2-2-2-2-2--2--2-|-4-|
x x x x x x x
Theo:
e|---------------|
B|----------2h4!-|
G|-3-3--4--------|
D|--------4------|
A|---------------|
E|---------------|

Verse 1

Em I Bbreak the Fbones to Ampieces Em in Bmy hands my Fclenching Amfingers Em Were Byou the same Fall aAmlong did I Emjust get Bbored Why Fdid I push you aAmway B B B

Verse 2

Em I sBtill sit Fplagues with Amquestions Em your Bactions Fyour inAmtentions Em Why Bcouldn't you just Ftalk to Amme Em Was Bit that I just Fcouldn't smile anyAmmore Tired of keeping it Binside

Chorus

F so I Cfailed Bat you And Fnow I pass out Ce--Bvery night i asEmsociate the Cworst things With your Emface F and I Cknow Byou're at a Floss from what You Cthrew Baway I Emjust wish that you had Cleft my innoEmcence
Theo: Chorus
e|-2-1-2-1-2-4--2-1-2-1-2-4--------------------------|
B|---------------------------------0-0-2-2-4-2-2-0---|
G|---------------------------3-3-3-----------------3-|
D|---------------------------------------------------|
A|---------------------------------------------------|
E|---------------------------------------------------|
Post Chorus: Slower Beat
Craig:

F Am

G|-----------------|-----------------| D|-----------------|-----------------| A|---------1h2p1---|-----------------| x3 E|-2-2-2-2-------2-|-4-4-4-4-4-4-4-4-|
         F            Em      E
G|-----------------|---------|---------|
D|-----------------|-1-1-1-1-|---------|
A|---------1h2p1---|---------|---------|
E|-2-2-2-2-------2-|---------|-0-0-0-0-|
         F                Am
G|-----------------|-----------------|
D|-----------------|-----------------|
A|---------1h2p1---|-----------------| x3
E|-2-2-2-2-------2-|-4-4-4-4-4-4-4-4-|
         F            Em      E
G|-----------------|---------|---------|
D|-----------------|-1-1-1-1-|---------|
A|---------1h2p1---|---------|---------|
E|-2-2-2-2-------2-|---------|-0-0-0-0-|
Tom:

F Am

e|-------|-----------------| B|-------|-----------------| G|-------|-----------------| D|-4-4-4-|-6-6-6-6-6-6-6-6-| x3 A|-4-4-4-|-6-6-6-6-6-6-6-6-| E|-2-2-2-|-4-4-4-4-4-4-4-4-|
x x x x x x x
     F      Em        E
e|-------|---------|---------|
B|-------|---------|---------|
G|-------|-8-8-8-8-|---------|
D|-4-4-4-|-8-8-8-8-|-2-2-2-2-|
A|-4-4-4-|-6-6-6-6-|-2-2-2-2-|
E|-2-2-2-|---------|-0-0-0-0-|
x x
     F         Am
e|-------|-----------------|
B|-------|-----------------|
G|-------|-----------------|
D|-4-4-4-|-6-6-6-6-6-6-6-6-| x3
A|-4-4-4-|-6-6-6-6-6-6-6-6-|
E|-2-2-2-|-4-4-4-4-4-4-4-4-|
x x x x x x x
         F           Em        E
e|----------------|---------|---------|
B|--------2h4p2---|---------|---------|
G|--------------3-|-8-8-8-8-|---------|
D|-4-4-4----------|-8-8-8-8-|-2-2-2-2-|
A|-4-4-4----------|-6-6-6-6-|-2-2-2-2-|
E|-2-2-2----------|---------|-0-0-0-0-|
x x x
Theo:
e|---------|
B|---------|
G|-3h4p3---|
D|-------4-| x8
A|---------|
E|---------|

Outro

F Even Amnow I still Fwonder how you Amare truly Fconcerned That you're Amwell even Fthough you put me Emthrough Ethis F Because I Amsee that it's Fbetter off this Amway When I Fthink that it is Amright and I Fknow that I'm oEmk E
Theo: at "truly" and "is right"
e|-13-14----|
B|-------14-|
G|----------|
D|----------|
A|----------|
E|----------|
End on: F(hold)--B-C-