Gob - Pinto Chords

 

A

variations
4 fr
         
         
         
         
1
3
4
2
1
1
4 fr
         
         
         
         
X
X
3
2
1
1
6 fr
         
         
         
         
X
X
1
2
4
3
         
         
         
         
3
2
1
1
1
4
8 fr
         
         
         
         
X
4
3
1
2
1
11 fr
         
         
         
         
X
1
2
3
4
X

11 fr
         
         
         
         
X
1
3
3
3
1

E

variations
3 fr
         
         
         
         
X
4
3
1
2
1
6 fr
         
         
         
         
X
1
2
3
4
1
         
         
         
         
X
X
1
2
4
3
3 fr
         
         
         
         
X
4
3
1
2
X
8 fr
         
         
         
         
4
3
1
1
1
X
8 fr
         
         
         
         
3
2
1
1
1
4

11 fr
         
         
         
         
1
3
4
2
1
1
         
         
         
         
1
3
4
1
1
1
         
         
         
         
X
X
3
1
1
1
3 fr
         
         
         
         
X
X
1
3
4
2
8 fr
         
         
         
         
X
1
3
4
2
1
5 fr
         
         
         
         
X
4
3
1
2
X

C

variations
4 fr
         
         
         
         
X
1
2
3
4
1
         
         
         
         
X
4
3
1
2
1
4 fr
         
         
         
         
X
1
4
4
4
X
6 fr
         
         
         
         
4
3
1
1
1
X
6 fr
         
         
         
         
3
2
1
1
1
4
9 fr
         
         
         
         
1
3
4
2
1
1

11 fr
         
         
         
         
X
X
1
3
4
3

Bm

variations
         
         
         
         
X
1
3
4
2
1
6 fr
         
         
         
         
1
3
4
1
1
1
         
         
         
         
X
1
3
4
2
X
6 fr
         
         
         
         
X
X
3
1
1
1
8 fr
         
         
         
         
X
X
1
3
4
2
10 fr
         
         
         
         
X
4
3
1
2
X

E/G

variations
         
         
         
         
1
X
X
2
4
3
3 fr
         
         
         
         
X
X
3
1
2
1
8 fr
         
         
         
         
X
3
1
1
1
4
3 fr
         
         
         
         
1
4
3
1
2
1
No chord
Standard guitar tuning:
E
A
D
G
B
E
No capo
Key: A Chords used:

Verse 1

you got the Afirst mile made it Ehtrough but you're falling aFmpartE Fm forget the Cdistance that you've Fmmoved since you were at the sBmtart Ai Bmbet you would Ado much better Edoing what you feel in you FmpartsE Fm because you Cgive and take and Agive all that you've Egot and it starts to break you

Chorus 1

AdownE unBmtil you have Cbroken AdownE unBmtil you have Cbroken

Guitar solo

A E Bm C

Guitar 2: Solo

A E Bm C A

e|-8-8-8-8-9-9-9-9-|-8-8-8-8-9-9-9-9-|-8---------8----|--------------------|-----| B|-9-9-9-9-9-9-9-9-|-9-9-9-9-9-9-9-9-|----11--11---11-|-9----9--11h13p11---|-9---| G|-8-8-8-8-8-8-8-8-|-8-8-8-8-8-8-8-8-|----------------|----8-------------8-|-----| D|-----------------|-----------------|----------------|--------------------|-----| A|-----------------|-----------------|----------------|--------------------|-----| E|-----------------|-----------------|----------------|--------------------|-----|

Verse 2

i've got a Abucket of Ewater in case you catch on FmfireE Fm i'm at the Cpit stop waiting for Fmyou if you blowout or Bmtire i've AgotBmta tell you A you fight like a Ebull and that i truly adFmmireE Fm that you Cgive and take and Agive all that you've Egot and it starts to break you

Chorus 2

AdownE unBmtil you have Cbroken AdownE unBmtil you have Cbroken AdownE! C Bm AdownE! C Bm

Bridge

Bass solo

Fm no flag in sight yet E/G but you've gotta keep Emoving Fm if your wheels forsake you E/G it'll Esurely break you Fm in time you'll be sold A and you might Efeel cold Fm but don't forget that A it's the Epath you've chosen

Guitar solo

Fm--G#-Eb- x3
Guitar 2: Solo
e|---------8-8-----------------8-8---------------|
B|--------------11-11--9-9--9-------11-11--9-9-8-|
G|-10-10-----------------------------------------|
D|-----------------------------------------------|
A|-----------------------------------------------|
E|-----------------------------------------------|
e|------8-8-----------------8-8---------------|
B|-9-9-------11-11--9-9--9-------11-11--9-9-8-|
G|--------------------------------------------|
D|--------------------------------------------|
A|--------------------------------------------|
E|--------------------------------------------|
e|---------8-8--------------------8-8---------------|
B|--------------11-11--9-9--8--9-------11-11--9-9-8-|
G|-10-10--------------------------------------------|
D|--------------------------------------------------|
A|--------------------------------------------------|
E|--------------------------------------------------|

Breakdown

C#--Eb--
Guitar 2: Breakdown
e|-4-4-4-4-4-3-1-3-4-4-4-4-4-3-1-3-4--3--4-|
B|-----------------------------------------|
G|-----------------------------------------|
D|-----------------------------------------|
A|-----------------------------------------|
E|-----------------------------------------|

Chorus 2

AdownE unBmtil you have Cbroken AdownE unBmtil you have Cbroken AdownE! C Bm AdownE! Fm Fm Fm